Xavier Baumaxa

piesne (125)

  texty () / preklady ()
  akordy () / taby ()
  noty () / slideshow ()

články (39)
fotogaléria
diskusia
videá
diskografia
v obchode
odkazy
koncerty
sťahuj



 

Xavier Baumaxa

Fanúšikov: 3



A B C Č D E F G H CH I J K L Ľ M N O P Q R S Š T U V W X Y Z Ž



ako:
Xavier Baumaxa - Pažitka - Melodie Pro Druhou Kytaru
Xavier Baumaxa - Pažitka - Melodie Pro Druhou Kytaru

tlač

edituj
Pesničku videlo 6739 návštevníkov.

Kvalita tabov : bez hodnotenia
Hodnotilo ľudí: 0 ohodnoť aj ty
Autor hudby: Xavier
Xavier Baumaxa – Pažitka

sloka:
--------------5-5-4-4-0-0-4-0-4-5--------------------------------------
--5-5-5---5-5---------------------7-7-5-7-5-3-5-5-3-(3-5)--------------
--------6--------------------------------------------------------------
-----------------------------------------------------------------------
-----------------------------------------------------------------------
-----------------------------------------------------------------------


refrén:
----5---5---5---5---5-5-5-7-5/2-2-5-2-5-5-5-5-4------------------------
--5---5---5---5---5-----------------------------5----------------------
-----------------------------------------------------------------------
-----------------------------------------------------------------------
-----------------------------------------------------------------------
-----------------------------------------------------------------------

solo:
tenké E--0-4-7-9-7-5-7-7-5-5-7-8-8-7-5-5-7-7-5-5-7-9-7-9-5-5-5-4-4-0---


Je to můj první tab, ale snad dobrý.

 
»
Tvoje obľúbené položky
Tvoje obľúbené položky
»
Najnovšie videá
Najnovšie videá

»
Tvoje obľúbené piesne
Tvoje obľúbené piesne
»
Najnavštevovanejšie piesne
Najnavštevovanejšie piesne
Pažitka - akordy a text

Dátamtůja - akordy a text

Nazijazz - akordy a text

Pažitka - Správně - akordy

Vegetarián - akordy

Lidé Z Malých Vesniček - akordy a text

Mámámamá - akordy

Špulka A Já - akordy a text

Otvírákem - akordy a text

Ozajstný Hip-hop - text

Pan Farář - akordy a text

Romale Rap - akordy a text

Ing. Pavel Pavel - akordy a text

Babí Léto - akordy

Lidé Z Malých Vesniček - Tab - taby

Kafkova Praha - akordy a text

Rosička - akordy a text

Retrofutro Discoteque - akordy a text

Last Free Place - akordy a text

Snížek - akordy a text

viac

»
Nové albumy interpreta
Nové albumy interpreta



home | interpreti | register piesní | cd & dvd shop | pripomienky/nápady | kontakt | ochrana údajov | inzercia