Muse


piesne (232)

  texty (115)
  akordy (44)
  taby (24)
  preklady (65)


články (236)
Fotky (146)
diskusia
videá
diskografia
v obchode
odkazy
koncerty
sťahuj



pridaj vlastný článok

Muse:
Muse zverejnili singel Compliance a podrobnosti o očakávanom deviatom albume - Britská skupina Muse zverejnila nový singel a zároveň oznámila vydanie albumu. Devia... - zoznam.sk


Muse:
Muse zverejnili nový singel Compliance a oznámili vydanie albumu - Muse zverejnili nový singel Compliance a oznámili vydanie albumuOhodnotiť Br...


Muse:
Muse vydají v srpnu album 'Will of the People'. Láká na něj dystopický
singl 'Compliance'
- Když britské trio Muse před dvěma měsíci vydalo nebývale tvrdý singl "Won't Stand... - musicserver.cz


Coldplay:
VIDEO: Coldplay si v 'People Of The Pride' hrají na Muse - Pokud se poslední desce Coldplay "Music Of The Spheres" určitě něco nedá vytknout, j... - musicserver.cz


Muse:
Muse se vrátili a jdou proti utiskování - Emotivní videoklip ke skladbě o odvaze postavit se proti utiskování či šikaně, to ... - rockandpop.cz


Muse:
Matt Bellamy naháňa hrôzu v novom dystopickom videoklipe kapely Muse - Temný videoklip, tvrdé metalové riffy a silný text o odvahe postaviť sa proti utlá... - zoznam.sk


Muse:
VIDEO: Muse jsou zpět. V klipu 'Won't Stand Down' ukazují temnou stránku
manipulace
- Tento návrat byl již dlouho na spadnutí - Muse se po téměř čtyřech letech hlásí... - musicserver.cz


Muse:
RECENZE: Celeste hlasově připomíná Amy Winehouse. Na Not Your Muse ukazuje,
že se může stát velkou pěveckou hvězdou
- Po typicky slabším startu nového roku, co se do četnosti nových desek týče, přich... - IREPORT


Yo-yo Ma:
Nové desky 49/2020 - od Taylor Swift přes Malumu po Muse - Hudební novinky pochopitelně žijí druhým letošním albem Taylor Swift K němu se p... - musicserver.cz


Blur:
VIDEO: Superskupina The Jaded Hearts Club se v klipu 'Reach Out I'll Be There'
snaží zabavit i během domácí izolace
- The Jaded Hearts Club chystají na říjen debutovou desku. Nahrávka nazvaná "You've Al... - musicserver.cz


 

Muse

Fanúšikov: 1



A B C Č D E F G H CH I J K L Ľ M N O P Q R S Š T U V W X Y Z Ž



ako:
Muse - Plug In Baby - Basa
Muse - Plug In Baby - Basa

tlač

edituj
Pesničku videlo 2207 návštevníkov.

Kvalita tabov : bez hodnotenia
Hodnotilo ľudí: 0 ohodnoť aj ty
  *** Autor textu: Muse *** Autor hudby: Muse
Verse (4x)
G----------------------------------------------------------------------------------
D-----------------------------4-------4-----4-------4------5-------5------5-------5
A-----5-----0-5---5----0-5----------4-------------4--------------5--------------5--
E---0---0-0-----0---0-0-----4----4-4------4----4-4-------5----5-5-------5----5-5---

End of Verse (1x) Pre-chorus (1x)
G-------------------------- G-------------------------------------
D-------------------------- D-------------------------------------
A-----5-----0-5---5----0-5— A-------------------------------------
E---0---0-0-----0---0-0---- E---4-4-4-4-4-4-4-4-4-4-4-4-4-4-4-4---

Chorus (4x)
G------------------- ----------------- --------------------- ------------------------
D------------------- ----------------- --------------------- ------------------------
A------------------- -----------4-5-4- 0-2-2-2-2-2-2-2-2---- -----------------0------
E---5-5-5-5-5-5-5-5- 5-5-5-5-5-------- --------------------- ---4-4-4-2-4-4-4--------

Verse (4x)
G----------------------------------------------------------------------------------
D-----------------------------4-------4-----4-------4------5-------5------5-------5
A-----5-----0-5---5----0-5----------4-------------4--------------5--------------5--
E---0---0-0-----0---0-0-----4----4-4------4----4-4-------5----5-5-------5----5-5---

End of Verse (1x) Pre-chorus (1x)
G-------------------------- G-------------------------------------
D-------------------------- D-------------------------------------
A-----5-----0-5---5----0-5— A-------------------------------------
E---0---0-0-----0---0-0---- E---4-4-4-4-4-4-4-4-4-4-4-4-4-4-4-4---

Chorus (4x)
G------------------- ----------------- --------------------- ------------------------
D------------------- ----------------- --------------------- ------------------------
A------------------- -----------4-5-4- 0-2-2-2-2-2-2-2-2---- -----------------0------
E---5-5-5-5-5-5-5-5- 5-5-5-5-5-------- --------------------- ---4-4-4-2-4-4-4--------

Bridge (2x)
G-------------------------------------------------------
D-------------------------------------------------------
A-----------------------------------5555555555555555----
E---44444444444444445555555555555555--------------------

Verse (1x)
G----------------------------------------------------------------------------------
D-----------------------------4-------4-----4-------4------5-------5------5-------5
A-----5-----0-5---5----0-5----------4-------------4--------------5--------------5--
E---0---0-0-----0---0-0-----4----4-4------4----4-4-------5----5-5-------5----5-5---

End of Verse (1x)
G---------------------------
D---------------------------
A-----5-----0-5---5----0-5--
E---0---0-0-----0---0-0----0

 
»
Tvoje obľúbené položky
Tvoje obľúbené položky
»
Najnovšie videá
Najnovšie videá

»
Tvoje obľúbené piesne
Tvoje obľúbené piesne
»
Najnavštevovanejšie piesne
Najnavštevovanejšie piesne
»
Nové albumy interpreta
Nové albumy interpreta



home | interpreti | register piesní | cd & dvd shop | pripomienky/nápady | kontakt | ochrana údajov | inzercia