B.f.o.


piesne (31)

  texty (28)
  akordy (9)
  taby (2)
  preklady (0)


články (2)
Fotky (1)
diskusia
videá
diskografia
v obchode
odkazy
koncerty
sťahuj



pridaj vlastný článok

April Quintet:
Bez teba niet neba II. – Výber slovenskej gospelovej hudby - musicserver.sk


B.f.o.:
B.F.O. sa opäť - už po niekoľký raz - zmobilizoval - slovenská republika


 

B.f.o.

Fanúšikov: 1



A B C Č D E F G H CH I J K L Ľ M N O P Q R S Š T U V W X Y Z Ž



ako:
B.f.o. - ČB Svet
B.f.o. - ČB Svet

tlač

edituj
Rok vzniku: 1996
Pesničku videlo 1283 návštevníkov.

Kvalita tabov : bez hodnotenia
Hodnotilo ľudí: 0 ohodnoť aj ty
  *** Autor textu: Šaňo Németh *** Autor hudby: Šaňo Németh
E-------12-----------------\
H----12----------------19-- flažolety
G--12---------------19-----/
D----------------19-------/

E-0--0--2--3--2--3--5--3--2--0--2--0-----
H--3---------------------------------3--0 2x


E-7-7-7-5-3-3-3-2-3-2-0---------7-7-7-5-3-3-3-2-3-2-0----0
H-----------------------3--0--------------------------3---


E-7-7-7-5-3-3-3-2-3-2-0-3-------------3
H-------------------------0-----0--2--


E-0----0-2-3-2-3-5-7-5-3-2-0
H---3-----------------------


E-----0-2-3-5-7-8------0-2-3-5-7-8-10----0-2-3-5-7-8-10-12--
H-1-3----------------3--------------------------------------


E--2-3-5-7-8-10-12-14----10-12-12-10-12--*10-12-12-10-12
H------------------------------------------------------
potom sa to nejako opakuje až cca po *


E-10-12-12-10-12---8-10-10-8-10----7-8-7-5-7-5-3-5-3-2-3-2-0---0--------0
H------------------------------------------------------------3---3--0-3--


E--0--0-----0-0-2-3-2-3-5-7-8-7-5-3-2-0---0-2-3-2-3-5-3-2-0---0
H---3---3----3--------------------------3-------------------3--


to len tak zhruba :)
( http://www.youtube.com/watch?v=5C4M8jG5Myk )

 
»
Tvoje obľúbené položky
Tvoje obľúbené položky
»
Najnovšie videá
Najnovšie videá

»
Tvoje obľúbené piesne
Tvoje obľúbené piesne
»
Najnavštevovanejšie piesne
Najnavštevovanejšie piesne
Túžba - text

Nik nie je sám - text

Čakáme - akordy a text

Púšť - text

Dar - text

Čln - text

Obraz neba - akordy a text

Blázni na nebi - akordy a text

ČB svet - text

Rany - text

Hej stoj - akordy a text

Čierny vták - akordy a text

Nik nie je sám - akordy a text

Farba Noci - akordy a text

Pocity - text

Sobota - text

Tri slzy - text

V máji sneh - text

Akoby - akordy a text

Čierny vták - text

viac

»
Nové albumy interpreta
Nové albumy interpreta



home | interpreti | register piesní | cd & dvd shop | pripomienky/nápady | kontakt | ochrana údajov | inzercia