Rolling Stones


piesne (760)

  texty (255)
  akordy (255)
  taby (199)
  preklady (106)


články (587)
Fotky (31)
diskusia
videá
diskografia
v obchode
odkazy
koncerty
sťahuj



pridaj vlastný článok

Rolling Stones:
Wine’n’Roll: THE ROLLING STONES - Poslyšte s námi příběh, který se zrodil ve slunném Španělsku, kde parta rockový... - spark


Pain:
PAIN pustili do světa předělávku ROLLING STONES - PAIN jsou známí svým mixem chytlavých melodií, majestátních harmonií a industriá... - spark


Rolling Stones:
Poprvé v kompletní podobě vyjde rekordní koncert Rolling Stones. V Riu
hráli pro 1,5 milionu lidí
- V únoru uplynulo patnáct let od vystoupení, které legendární The Rolling Stones ode... - musicserver.cz


Beatles:
RETRO: David Bowie tisíckrát jinak. Ať už experimentoval s halucinogeny,
amfetaminy nebo japonským divadlem, vždy působil, že přesně ví, co dělá
- Kdo je David Bowie? Vlastně je to jednoduché: nejvlivnější hudební umělec všech d... - IREPORT


Rolling Stones:
Rolling Stones by měli rušný rok - Nebýt koronaviru, měli by britští rockeři Rolling Stones velmi rušný rok. Celé ja... - novinky.cz


Doves:
Nová alba: Marilyn Manson, Doves, The Flaming Lips i reedice Rolling Stones - Blíží se předvánoční čas a na hudební trh se dostávají jak alba silných hude... - novinky.cz


Rolling Stones:
Rolling Stones má v šiestich rozličných desaťročiach album na prvej
priečke
- Britská rocková skupina The Rolling Stones sa stala prvou hudobnou formáciou, ktorej a... - zoznam.sk


HEAD SOUP:
Rolling Stones měli v každém desetiletí své existence album na prvním
místě britského žebříčku
- Britští Rolling Stones jsou první hudební formací, jejíž alba se v ostrovních ž... - novinky.cz


Rolling Stones:
Obrazem: Rolling Stones jsou optimisté. Otevřeli obchod v Londýně,
prodávají i roušky
- Prodávají kabát za 6800 korun nebo bavlněné roušky po 440 korunách za kus.... - aktualne.cz


Rolling Stones:
Rolling Stones jsou s albem Goats Head Soup opět na čele žebříčku - Londýn - Rocková kapela Rolling Stones se stala první hudební skupinou v historii... - ceskenoviny.cz


 

Rolling Stones

Fanúšikov: 3



A B C Č D E F G H CH I J K L Ľ M N O P Q R S Š T U V W X Y Z Ž



ako:
Rolling Stones - Time Is On My Side
Rolling Stones - Time Is On My Side

tlač

edituj
Rok vzniku: 1997
Pesničku videlo 2406 návštevníkov.

Kvalita tabov : bez hodnotenia
Hodnotilo ľudí: 0 ohodnoť aj ty
Autor hudby: Rolling Stones
E||--16b----16b------16b---|----13----------13----------|----------------------|
B||------------------------|--------13------------------|----------------------|
G||------------------------|------------15b---------15b-|------13r-------------|
D||------------------------|----------------------------|--------------15/-----|
A||------------------------|----------------------------|----------------------|
E||------------------------|----------------------------|----------------------|



------13------13------13------13--|------13------13------------------|
--16b-----16b-----16b-----16b-----|--16b-----16b---------13----------|
----------------------------------|------------------15b-----15b-15r-|
----------------------------------|----------------------------------|
----------------------------------|----------------------------------|
----------------------------------|----------------------------------|



----------------------------|--1------1-------1----|----1--1--1------------|
----------------------------|--1------1----3--1----|----1--1--1--3------3--|
--13------15b---15b-15r-----|--2------2----3--2----|----2--2--2--3------3--|
------15--------------------|--3------3----3--3----|----3--3--3--3------3--|
----------------------------|--3--------------3----|-------------1------1--|
----------------------------|--1-------------------|-----------------------|



-------------------------------|--1------1-------1----|----1--1--1------------|
-------------------------------|--1------1----3--1----|----1--1--1--3------3--|
--7--7-------------------------|--2------2----3--2----|----2--2--2--3------3--|
--8--8-------10----------------|--3------3----3--3----|----3--3--3--3------3--|
--8--8--8--9-10-10--10------8--|--3--------------3----|-------------1------1--|
--6--6--6--7-8--8---8---10-----|--1-------------------|-----------------------|



-------------------------------|-------------------------|
-------------------------------|---------6--6------------|
--7--7-------------------------|-------7----7---------5--|
--8--8-------10----------------|-----7-------------5-----|
--8--8--8--9-10-10--10------8--|--5----------------3-----|
--6--6--6--7-8--8---8---10-----|-------------------------|



--------------------------|----------------------1----------|
-----5--------6--------6--|----------------0----------------|
--------5-----7-----7-----|--7-----------0------------0--9--|
--5--------5--7--7--------|-----7------0-----------------10-|
--------------5-----------|----------2-------------------10-|
--------------------------|--------3---------------------8--|



-----------------------------|--------------------------|
-----------------------------|--------------5--5--5--5--|
---------9---9--9--9---7--7--|-----7--7--7--5--5--5--5--|
---------10--10-10-10--8--8--|-----8--8--8--5--5--5--5--|
---------10--10-10-10--8--8--|-----8--8--8--3--3--3--3--|
---------8---8--8--8---6--6--|-----6--6--6--------------|



-----------------------------|---------------------------|
---5-5--3--3--3--3--3-3-3--5-|-----5--5--5--5--5--3--3-3-|
---5-5--3--3--3--3--3-3-3--5-|-----5--5--5--5--5--3--3-3-|
---5-5--3--3--3--3--3-3-3--5-|-----5--5--5--5--5--3--3-3-|
---3-3--1--1--1--1--1-1-1--3-|-----3--3--3--3--3--1--1-1-|
-----------------------------|---------------------------|



---------------------------|-----------------------------|
-----3--3--3--5--5-5-5--5--|--5-5--5--5-5-5--5--5--5-5-5-|
-----3--3--3--5--5-5-5--5--|--5-5--5--5-5-5--5--5--5-5-5-|
-----3--3--3--5--5-5-5--5--|--5-5--5--5-5-5--5--5--5-5-5-|
-----1--1--1--3--3-3-3--3--|--3-3--3--3-3-3--3--3--3-3-3-|
---------------------------|-----------------------------|



--1------1-------1----|----1--1--1------------|-------------------------------|
--1------1----3--1----|----1--1--1--3------3--|-------------------------------|
--2------2----3--2----|----2--2--2--3------3--|--7--7-------------------------|
--3------3----3--3----|----3--3--3--3------3--|--8--8-------10----------------|
--3--------------3----|-------------1------1--|--8--8--8--9-10-10--10------8--|
--1-------------------|-----------------------|--6--6--6--7-8--8---8---10-----|



--1------1-------1----|-----1--1--1------------|-------------------------------|
--1------1----3--1----|-----1--1--1--3------3--|-------------------------------|
--2------2----3--2----|-----2--2--2--3------3--|--7--7-------------------------|
--3------3----3--3----|-----3--3--3--3------3--|--8--8-------10----------------|
--3--------------3----|--------------1------1--|--8--8--8--9-10-10--10------8--|
--1-------------------|------------------------|--6--6--6--7-8--8---8---10-----|



-------------------------|--------------------------|
---------6--6------------|-----5--------6--------6--|
-------7----7---------5--|--------5-----7-----7-----|
-----7-------------5-----|--5--------5--7--7--------|
--5----------------3-----|--------------5-----------|
-------------------------|--------------------------|



----------------------1----------|-----------------------------|
----------------0----------------|-----------------------------|
--7-----------0------------0--9--|---------9---9--9--9---7--7--|
-----7------0-----------------10-|---------10--10-10-10--8--8--|
----------2-------------------10-|---------10--10-10-10--8--8--|
--------3---------------------8--|---------8---8--8--8---6--6--|



--------------------------|-----------------------------|
--------------5--5--5--5--|---5-5--3--3--3--3--3-3-3--5-|
-----7--7--7--5--5--5--5--|---5-5--3--3--3--3--3-3-3--5-|
-----8--8--8--5--5--5--5--|---5-5--3--3--3--3--3-3-3--5-|
-----8--8--8--3--3--3--3--|---3-3--1--1--1--1--1-1-1--3-|
-----6--6--6--------------|-----------------------------|



---------------------------|---------------------------------|
-----5--5--5--5--5--3--3-3-|---3--3--3--3--------------------|
-----5--5--5--5--5--3--3-3-|---3--3--3--3--9---9--9--9---9---|
-----5--5--5--5--5--3--3-3-|---3--3--3--3--10--10-10-10--10--|
-----3--3--3--3--3--1--1-1-|---1--1--1--1--10--10-10-10--10--|
---------------------------|---------------8---8--8--8---8---|



------------------------------------|-----16b-16b-16b-----13--------|
---10--10--10--10-10-10--10--10--10-|------------------------13-----|
---9---9---9---9--9--9---9---9---9--|---------------------------15b-|
---8---8---8---8--8--8---8---8---8--|-------------------------------|
---10--10--10--10-10-10--10--10--10-|-------------------------------|
---8---8---8---8--8--8---8---8---8--|-------------------------------|



--13-----------------------------|-----------------------------------------|
---------------------------------|----------------13-----------------------|
------15b-15b-15b-----13----13---|----------15-15b-----15b-15b13-13--13----|
-------------------------15------|-------13-----------------------------15-|
---------------------------------|----15-----------------------------------|
---------------------------------|-----------------------------------------|



------13-------13----------------|-----------------------------|
---------16-13----16~-----13-11b-|-----------------------------|
---------------------------------|----------13-15-13-15~-------|
---------------------------------|-------15--------------------|
---------------------------------|-----------------------------|
---------------------------------|-----------------------------|



-----------------------------13--|-------13-------------------------------|
--------------------------13-----|----13----16~---13-----13---------------|
-----15r13----13~---------14-----|-------------------15b----15r-----13----|
-----------15-------15-----------|-------------------------------------15-|
---------------------------------|----------------------------------------|
---------------------------------|----------------------------------------|



------------------------------10--------|---------------------------------|
----------------------------------------|---------------------------------|
---13b---13------13------12b-----12-10--|------10-------------10b-----10--|
------15------15----15------------------|---12----12~-----12------12------|
----------------------------------------|---------------------------------|
----------------------------------------|---------------------------------|



------10-----------------------------------|-----------------------------|
--------------10----10---------------------|-----------------11----------|
---12b-----12b---12b---12b12-10----10------|-----------10----12--10h-8h9-|
--------------------------------12-----12--|-------12--------------------|
-------------------------------------------|-----------------------------|
-------------------------------------------|-----------------------------|



--------------------------1--|------1-------1------|--1--1--1---------------|
------10--8---------8-----1--|------1----3--1------|--1--1--1--3------3-----|
------10--8h9-------8h9---2--|------2----3--2------|--2--2--2--3------3-----|
--10------------10~-------3--|------3----3--3------|--3--3--3--3------3--3--|
----------------10~-------3--|--------------3------|-----------1------1--1--|
--------------------------1--|---------------------|------------------------|



------------------------------5--|------1-------1------|
------------------------------6--|------1----3--1------|
-----9-------------9----------7--|------2----3--2------|
-----10--10-10-10--10---------7--|------3----3--3------|
--9--10--10-10-10--10------8--5--|--------------3------|
--7--8---8--8--8---8---10--------|---------------------|



--1--1--1---------------|-------------------------------|
--1--1--1--3------3-----|-------------------------------|
--2--2--2--3------3-----|--7--7-------------------------|
--3--3--3--3------3--3--|--8--8-------10----------------|
-----------1------1--1--|--8--8--8--9-10-10--10------8--|
------------------------|--6--6--6--7-8--8---8---10-----|



-------------------------|--------------------------|
---------6--6------------|-----5--------6--------6--|
-------7----7---------5--|--------5-----7-----7-----|
-----7-------------5-----|--5--------5--7--7--------|
--5----------------3-----|--------------5-----------|
-------------------------|--------------------------|



----------------------1----------|--------------------------|
----------------0----------------|-------5--5-5-5--3--3--3--|
--7-----------0------------0--9--|-------5--5-5-5--3--3--3--|
-----7------0-----------------10-|-------5--5-5-5--3--3--3--|
----------2-------------------10-|-------3--3-3-3--1--1--1--|
--------3---------------------8--|--------------------------|



--------------------------|--------------------------|
----3--3--5--5--5--5--5-5-|----3--3--3--3--3-3-3--5--|
----3--3--5--5--5--5--5-5-|----3--3--3--3--3-3-3--5--|
----3--3--5--5--5--5--5-5-|----3--3--3--3--3-3-3--5--|
----1--1--3--3--3--3--3-3-|----1--1--1--1--1-1-1--3--|
--------------------------|--------------------------|



--------------------------|-----------------------------|
-------5--5-5-5--3--3--3--|----3--3--5--5-5-5--5--5-5-5-|
-------5--5-5-5--3--3--3--|----3--3--5--5-5-5--5--5-5-5-|
-------5--5-5-5--3--3--3--|----3--3--5--5-5-5--5--5-5-5-|
-------3--3-3-3--1--1--1--|----1--1--3--3-3-3--3--3-3-3-|
--------------------------|-----------------------------|



---------------------------|-------------------------------|
----5--5--5--5--5--5--1--1-|----1-1--1--1-1-1--1--1-1-1--1-|
----5--5--5--5--5--5--2--2-|----2-2--2--2-2-2--2--2-2-2--2-|
----5--5--5--5--5--5--3--3-|----3-3--3--3-3-3--3--3-3-3--3-|
----3--3--3--3--3--3--3--3-|----3-3--3--3-3-3--3--3-3-3--3-|
----------------------1--1-|----1-1--1--1-1-1--1--1-1-1--1-|



----------------------------|----------------------------|
----1--1--3--3-3-3--3--3--3-|----5--5-5-5--------0--1--1-|
----2--2--3--3-3-3--3--3--3-|----5--5-5-5--5--2-----2--2-|
----3--3--3--3-3-3--3--3--3-|----5--5-5-5--5--0--2--3--3-|
----3--3--1--1-1-1--1--1--1-|----3--3-3-3--3--------3--3-|
----1--1--------------------|-----------------------1--1-|



-------------------------------|----------------------------|
----1-1--1--1-1-1--1--1-1-1--1-|----1--1--3--3-3-3--3--3--3-|
----2-2--2--2-2-2--2--2-2-2--2-|----2--2--3--3-3-3--3--3--3-|
----3-3--3--3-3-3--3--3-3-3--3-|----3--3--3--3-3-3--3--3--3-|
----3-3--3--3-3-3--3--3-3-3--3-|----3--3--1--1-1-1--1--1--1-|
----1-1--1--1-1-1--1--1-1-1--1-|----1--1--------------------|



----------------------------|-------------------------------|
----5--5-5-5--------0--1--1-|----1-1--1--1-1-1--1--1-1-1--1-|
----5--5-5-5--5--2-----2--2-|----2-2--2--2-2-2--2--2-2-2--2-|
----5--5-5-5--5--0--2--3--3-|----3-3--3--3-3-3--3--3-3-3--3-|
----3--3-3-3--3--------3--3-|----3-3--3--3-3-3--3--3-3-3--3-|
-----------------------1--1-|----1-1--1--1-1-1--1--1-1-1--1-|



----------------------------|----------------------1---|------------------|
----1--1--3--3-3-3--3--3--3-|----5--5--5--5--5--5--1---|------------------|
----2--2--3--3-3-3--3--3--3-|----5--5--5--5--5--5--2---|------------------|
----3--3--3--3-3-3--3--3--3-|----5--5--5--5--5--5--3---|------------------|
----3--3--1--1-1-1--1--1--1-|----3--3--3--3--3--3--3---|------------------|
----1--1--------------------|----------------------1---|------------------|

 
»
Tvoje obľúbené položky
Tvoje obľúbené položky
»
Najnovšie videá
Najnovšie videá

»
Tvoje obľúbené piesne
Tvoje obľúbené piesne
»
Najnavštevovanejšie piesne
Najnavštevovanejšie piesne
Angie - verzia 1 - akordy a text

Angie - akordy

Wild Horses - akordy a text

Satisfaction - Akordy a text

Angie Version 5 - akordy a text

Angie - Konečná Verze - akordy

Paint It Black - akordy a text

Wild Horses - preklad

Angie - verzia 2 - akordy a text

Wild Horses - akordy a text

I Can´t Get No ( Satisfaction ) - akordy a text

Ruby Tuesday - akordy a text

Lady Jane - preklad

Mixed Emotions - preklad

Don\'t Stop - taby

Rough Justice - preklad

Angie - preklad

Anybody Seen My Baby? - preklad

(I Can´t Get No) Satisfaction - preklad

Satisfaction - preklad

viac

»
Nové albumy interpreta
Nové albumy interpreta



home | interpreti | register piesní | cd & dvd shop | pripomienky/nápady | kontakt | ochrana údajov | inzercia