Rolling Stones


piesne (760)

  texty (255)
  akordy (255)
  taby (199)
  preklady (106)


články (587)
Fotky (31)
diskusia
videá
diskografia
v obchode
odkazy
koncerty
sťahuj



pridaj vlastný článok

Rolling Stones:
Wine’n’Roll: THE ROLLING STONES - Poslyšte s námi příběh, který se zrodil ve slunném Španělsku, kde parta rockový... - spark


Pain:
PAIN pustili do světa předělávku ROLLING STONES - PAIN jsou známí svým mixem chytlavých melodií, majestátních harmonií a industriá... - spark


Rolling Stones:
Poprvé v kompletní podobě vyjde rekordní koncert Rolling Stones. V Riu
hráli pro 1,5 milionu lidí
- V únoru uplynulo patnáct let od vystoupení, které legendární The Rolling Stones ode... - musicserver.cz


Beatles:
RETRO: David Bowie tisíckrát jinak. Ať už experimentoval s halucinogeny,
amfetaminy nebo japonským divadlem, vždy působil, že přesně ví, co dělá
- Kdo je David Bowie? Vlastně je to jednoduché: nejvlivnější hudební umělec všech d... - IREPORT


Rolling Stones:
Rolling Stones by měli rušný rok - Nebýt koronaviru, měli by britští rockeři Rolling Stones velmi rušný rok. Celé ja... - novinky.cz


Doves:
Nová alba: Marilyn Manson, Doves, The Flaming Lips i reedice Rolling Stones - Blíží se předvánoční čas a na hudební trh se dostávají jak alba silných hude... - novinky.cz


Rolling Stones:
Rolling Stones má v šiestich rozličných desaťročiach album na prvej
priečke
- Britská rocková skupina The Rolling Stones sa stala prvou hudobnou formáciou, ktorej a... - zoznam.sk


HEAD SOUP:
Rolling Stones měli v každém desetiletí své existence album na prvním
místě britského žebříčku
- Britští Rolling Stones jsou první hudební formací, jejíž alba se v ostrovních ž... - novinky.cz


Rolling Stones:
Obrazem: Rolling Stones jsou optimisté. Otevřeli obchod v Londýně,
prodávají i roušky
- Prodávají kabát za 6800 korun nebo bavlněné roušky po 440 korunách za kus.... - aktualne.cz


Rolling Stones:
Rolling Stones jsou s albem Goats Head Soup opět na čele žebříčku - Londýn - Rocková kapela Rolling Stones se stala první hudební skupinou v historii... - ceskenoviny.cz


 

Rolling Stones

Fanúšikov: 3



A B C Č D E F G H CH I J K L Ľ M N O P Q R S Š T U V W X Y Z Ž



ako:
Rolling Stones - Wild Horses
Rolling Stones - Wild Horses

tlač

edituj
Rok vzniku: 1965
Pesničku videlo 2832 návštevníkov.

Kvalita tabov : bez hodnotenia
Hodnotilo ľudí: 0 ohodnoť aj ty
Autor hudby: Rolling Stones
intro                          |--3--|
E W Q +E +E S S S S S S S S S
|-----||--------------------------|-^0--(0)-(0)-------------------------------|
|-----||--------------------------|-^1--(1)-(1)----0-------1------------------|
|-----||--------------------------|-^2--(2)-(2)-------0h2-----0------0--------|
|-----||--------------------------|---------------------------0--2--------2p0-|
|-----||--------------------------|-------------------------------------------|
|-----||--------------------------|-------------------------------------------|
|
| Gtr II
| E W Q E S S E S S S S S S
|-----||--------------------------|---------10--10---10---10-10-10s==8----8s7-|
|-----||--------------------------|---------12--12---12---12-12-12s=10---10s8-|
|-----||--------------------------|-------------------------------------------|
|-----||--------------------------|-------------------------------------------|
|-----||--------------------------|-------------------------------------------|
|-----||--------------------------|-------------------------------------------|
|
| Gtr III
| |3| |3-| |3-| |--3--| |--3--|
| E S Q E +E S E E +E S S S Q E +E S e E +E S S S
|---3-||-3--3-(3)-3-3-3-(3)-3-3-3-|--3---3--(3)-------3----3----(3)----3--3---|
|---0-||-0--0-(0)-0-0-0-(0)-0-0-0-|--1---1--(1)-------1----1----(1)----1--1-0-|
|---0-||-0--0-(0)-0-0-0-(0)-0-0-0-|--0---0--(0)----0--0----0----(0)----0--0-0-|
|---0-||-0--0-(0)-0-0-0-(0)-0-0-0-|--2---2--(2)----2--2----2----(2)----2--2-0-|
|---2-||-2--2-(2)-2-2-2-(2)-2-2-2-|--0---0--(0)----0--0----0----(0)----0--0-0-|
|---3-||-3--3-(3)-3-3-3-(3)-3-3-3-|-------------------------------------------|


|3-|
Q +E +E S E E E E H S S E S S e
|------------0---0--0--------|-0------------------------------------|
|--------------1-1--0----0---|-1-----------1--(0)-------------------|
|------------------------0---|-2-----------2---0----------------0---|
|----------------------------|---------------------------0---2------|
|-0--(0)-(0)-----------------|--------------------------------------|
|----------------------------|--------------------------------------|
|
| W Q E S S E S S S S S S
|-7--------------------------|------10-10-10\-----10-10-10s==8--8s7-|
|-8--------------------------|------12-12-12\-----12-12-12s=10-10s8-|
|----------------------------|--------------------------------------|
|----------------------------|--------------------------------------|
|----------------------------|--------------------------------------|
|----------------------------|--------------------------------------|
|
| |3-| |3-|
| Q E +E S E E +E S S S Q E S S S S S S +S S E
|-3---3--(3)-3-3-3-(3)-3-3-0-|-3--3---------------------------------|
|-0---0--(0)-0-0-0-(0)-0-0-0-|-1--1---------------------------------|
|-0---0--(0)-0-0-0-(0)-0-0---|-0--0-------------------0-(0)---------|
|-0---0--(0)-0-0-0-(0)-0-0---|-2--2-----2----------2---------2------|
|-2---2--(2)-2-2-2-(2)-2-2---|-0--0--0-----0---3----------------3---|
|-3---3--(3)-3-3-3-(3)-3-3---|--------------------------------------|


|-3--|
Q +E +E S E E E E
|--------------0-0-0--0----0---||
|--------------0-1-1--0----3---||
|----------------0-0--0----0---||
|------------------------------||
|-0--(0)-(0)-------------------||
|------------------------------||
|
| W
|-7----------------------------||
|-8----------------------------||
|------------------------------||
|------------------------------||
|------------------------------||
|------------------------------||
|
| Q E. S E E +S S E
|-----3------3-----3-(3)-3-3---||
|-----0------0-----0-(0)-0-0---||
|-----0------0-----0-(0)-0-0---||
|-----0------0-----0-(0)-0-0---||
|-----2------2---2-2-(2)-2-2---||
|-3---3------3---3-3-(3)-3-3---||


Verse 1
|3-|
Q E +E S E E E E
|--4--4-(4)-4------------------|
|--3--3-(3)-3------------------|
|--4--4-(4)-4---------4----4---|
|--4--4-(4)-------4---4----4---|
|--4--4-(4)----4---------------|
|------------------------------|
|-Rhy Fig 1
|
| H +E S S S S S S
|------------------------------|
|-^7----------(7)-7---8---10---|
|-^7----------(7)---7---7----7-|
|-^9----------(9)--------------|
|------------------------------|
|------------------------------|
|
| W
|--2---------------------------|
|--3---------------------------|
|--4---------------------------|
|--4---------------------------|
|--2---------------------------|
|------------------------------|
|-Fill 1

Q E. S E E E E Q E. S E E E E
|---0---0--0----0-----0---------0----0---|--4---4--4-4-4-4-4-|
|---0---0--0----1-----1---------0----0---|--3---3--3-3-3-3-3-|
|---0---0-------0-----0---------0----0---|--4---4--4-4-4-4-4-|
|---0---0-----------------------0----0---|--4---4--4-4-4-4-4-|
|---0------------------------------------|--4---4--4-4-4-4-4-|
|---0------------------------------------|-------------------|
|
| H E S S S S S S W
|---7-----------------7------------------|--7----------------|
|------------------------------10----8---|--7----------------|
|--(7)---------------------7-------7---7-|-(7)---------------|
|----------------------------------------|-------------------|
|----------------------------------------|-------------------|
|----------------------------------------|-------------------|
|
| H +E S S Q W
|----------------------------------------|-------------------|
|-------------------<12>-----------------|-<7>---------------|
|-<12>-------(<12>)------<12>------------|-------------------|
|-----------------------------<12>-------|-------------------|
|----------------------------------------|-------------------|
|----------------------------------------|-------------------|


Q E. S E E E E Q E. S E E E E Q E. S E e E e
|---0---0--0-0-0-0-0-|---0---0--0-0-------|---5---5--5-5-5------7----|
|---0---0--0-1-1-0-1-|---1---1--1-1-------|---5---5--5-5-5------7----|
|---0---0----0-0-0-0-|---2---2--2-2---2-0-|---5---5--5-5-5------7----|
|---0---0----0-0-0-0-|---2---2--2-2-2---0-|---5---5--5-5-5------7----|
|---0--------0-0-----|---2---2--2-2-------|---5---5--5-5-5------7----|
|---0----------------|--------------------|-----------------0--------|
|
| W H. Q H. S S S S
|-^-7----------------|--(5)---------------|-^-8----------------------|
|-^-8----------------|---5----------------|-^-8-------------7--------|
|-^-7----------------|---5----------------|-^-9---------------7------|
|--------------------|--------------------|-^10-----------------7h9--|
|--------------------|--------------------|--------------------------|
|--------------------|--------------------|--------------------------|
|
| W H. Q H. Q
|--------------------|--------------------|-^-0------------^2--------|
|--------------------|--------------------|-^-1------------^3--------|
|-<12>---------------|--------------------|-^-0------------^2--------|
|--------------------|--------------------|-^-2------------^0--------|
|--------------------|-<12>---------------|-^-3----------------------|
|--------------------|-<12>---------------|--------------------------|


Q E. S S S E E E
|--0---------0--0-0-(0)-0-0-0-|
|--0---------0--0-0h=1--1-1-0-|
|--0---------0----0-(0)-0-0-0-|
|--0---------0----------------|
|--0--------------------------|
|--0--------------------------|
|
| E S S +H.
|-----------------------------|
|--8--------------------------|
|-----------------------------|
|-(9)-9-----------------------|
|-------10-(10)---------------|
|-----------------------------|
|
| W
|-^3--------------------------|
|-^0--------------------------|
|-^0--------------------------|
|-^0--------------------------|
|-^2--------------------------|
|-^3--------------------------|


Q E. S E e E e Q E. S E E E E
|-------2----2-------7-------|--4----4-------------------|
|-------3----3-------7-----5-|--3----3-------------------|
|-------2----2-------7-----5-|--4----4--4--4------4---4--|
|-------0------------7-----5-|--4----4--4--4--4---4---4--|
|--------------------7---5---|--4----4-----4------4---4--|
|-0-------------0--------5---|---------------------------|
|
| ~~~
| S S E E E +S S S S E E +Q +Q +E S S S S E
|-2-----0----------2-----0---|--------------------2------|
|---3------3---(3)---3-----3-|-(3)--(3)---(3)-3----------|
|-----2----------------2-----|------------------4---4-4--|
|----------------------------|---------------------------|
|----------------------------|---------------------------|
|----------------------------|---------------------------|
|
| W W
|-2--------------------------|--2------------------------|
|-3--------------------------|--3------------------------|
|-2--------------------------|--4------------------------|
|-0--------------------------|--4------------------------|
|----------------------------|--2------------------------|
|----------------------------|---------------------------|


Q E. S S S E E E
|-------0--0---0----0----0----0----0---|
|-------0--0---1----1----1----0----0---|
|---0---0------0----0----0----0----0---|
|---0---0--------------------------0---|
|---0------------------------------0---|
|---0----------------------------------|
|
| H E S S S S S S
|------------------------7-------------|
|-<12>-------------------7--7---10-8---|
|-<12>------------------------7------7-|
|-<12>---------------------------------|
|--------------------------------------|
|--------------------------------------|
|
| H S S Q.
|--------------------------------------|
|------------<12>----------------------|
|---4-------------<12>-----------------|
|---5------------------<12>------------|
|--------------------------------------|
|--------------------------------------|


Q E. S E E E E Q E. S E E E E
|-4---4--4-----4--------|---------0--0--0--0-0-0--|
|-3---3--3-----3--------|---------0--0--1--1-0-1--|
|-4---4--------4--------|---0-----0-----0--0-0-0--|
|-4---4------4-4----4---|---0-----0---------------|
|-4--------4---4----4---|---0---------------------|
|-----------------------|---0---------------------|
|
| H. S S S S E Q. +Q E e
|-----------------------|---7------------------7--|
|-7------------8---10---|---8---------------------|
|-7--------------7----7-|---7--7-------(7)--------|
|-9---------------------|-------------------------|
|-----------------------|-------------------------|
|-----------------------|-------------------------|
|
| H. Q W
|-7---------------------|-------------------------|
|-7---------------------|-<12>--------------------|
|-7---------------------|-<12>--------------------|
|-----------------------|-<12>--------------------|
|-----------------------|-------------------------|
|-----------------------|-------------------------|


Q E. S E E E E Q E. S E e E e
|---2------2---------0---0--|----5----5--5------5-------------7--|
|---1---1--1---------1---0--|----5----5--5------5-------------7--|
|---2---2--2---------2---0--|----5----5--5--5---5-------------7--|
|---2---2---------2------0--|----5----5-----5---5-------------7--|
|---2---2-----2-------------|----5----5-----5---5-------------7--|
|---------------------------|------------------------0-----------|
|
| H. Q H +E E S S E
|---5-----------------------|----8---------(8)-------------------|
|---5-----------------------|----8---------(8)-------7-----------|
|---5-----------------------|----9---------(9)------------7------|
|---------------------------|---------------------------------7--|
|---------------------------|------------------------------------|
|---------------------------|------------------------------------|
|
| H E Q E +H E E S S E
|---------------------------|------------------------------------|
|---------------------------|--------------------------------<7>-|
|------------<5>------------|----------------------<12>----------|
|----------------<5>--------|--------------<7>----------<12>-----|
|-<12>-----------------<12>-|-(<12>)-----------<7>---------------|
|-<12>-----------------<12>-|-(<12>)-----------------------------|


Q E. S E E E E Q E. S E E E E
|---0-----0--0--0-------0---0-------0--|--------4-------4--------------------------||
|---0-----0--0--1-------1---1-------0--|--------3-------3-----------/7-----0-------||
|---0-----0--0--0-------0---0-------0--|--------2-------2---------2-/7-----0-------||
|---0-----0-----0----------------------|--------0-----------------0-/7-------------||
|---0-----0-----0----------------------|----------------------------/7-------------||
|---0-----0----------------------------|--0-----------------0----------------------||
| end Rhy Fig 1-|
|
| E Q. +Q Q E E S S S S S S E E S S
|------3-------(3)---------------------|--------0-----------2--------------7-(7)s==||
|------3-------(3)---------------------|-----------3----3------3-------------------||
|------4-------(4)---------------------|------2------2------------2s=7--------7s===||
|---5----------------------------------|--0----------------------------------------||
|--------------------------------------|-------------------------------------------||
|--------------------------------------|-------------------------------------------||
|
| H S S E S S E Q.. S +E E S S E
|--------------------------------------|-------------------------------------------||
|-<12>---------------------------------|-------------------------------------------||
|-<12>-------------<5>---------<5>-----|-11-------------------------------11-------||
|-<12>---------<5>-----<5>-<5>-----<5>-|-12----------------------------12----------||
|--------------------------------------|-12------------12-(12)---12-12-------------||
|--------------------------------------|-10----------------------------------------||
end Fill 1-|

Chorus
Gtr III
|-Rhy Fig 2A
Am C D
Q E. S E E E E Q E. S E E S S E
| | | | | | | | | | | | | | |
/ / / / / / / / / / / / / / /

Gtr I
E E E. S E E E S S E E E. S E e E e
|-2-2-2--2-2-2-2-0---|-5-5-5----5-5-5---------7-|
|-1-1-1--1-1-1-1-0---|-5-5-5----5-5-5---------7-|
|-2-2-2--2-2-2-2-0-0-|-5-5-5----5-5-5---------7-|
|-2-2-2--2-2-2-2-----|-5-5-5----5-5-5---------7-|
|--------------------|-5-5-5----5-5-5---------7-|
|--------------------|-------------------0------|
|-Rhy Fig 2
|
| Gtr II
| W E e E S S e S S S S E
|-5------------------|-------------------7----5-|
|--------------------|---5-5--5-5---------------|
|-5------------------|---5-5--5-5-5-5s7-(7)s5---|
|--------------------|---5-5--------------------|
|--------------------|--------------------------|
|--------------------|--------------------------|


G F C Bm Am
Q E S S E E E S S E E E. S E E S S E Q E. S E E E E
| | | | | | | | | | | | | | | | | | | | | | | | |
/ / / / / / / / / / / / / / / / / / / / / / / / /

Q E. S E E E E Q E. S E e Q Q E. S E E E S S
|-0---0----0----------------|-5---5--5-5-5----4------|-2---0--0---0-0------|
|-0---0----0------10-10-----|-5---5--5-5-5----3------|-1---1--1---1-1-0-0--|
|-0---0----0------10-10-0---|-5---5--5-5-5----4------|-2---2--2---2-2-0-0--|
|-0---0------10---10-10-0---|-5---5----5-5----4------|-2---2--2---2-2------|
|-0---0------10---10--------|-5---5----5-5----4------|-0---2--2-----2------|
|-0---0------10-------------|-5---5------------------|----------0----------|
|
| Q. S S S S Q E H E S S Q H. E S S
|-3------3p0--1-3p=1----3---|-0---------------7------|-5-------------------|
|-3-----------1-3p=1----1---|-1----------------------|----------------8----|
|-4-------------------------|-0----------5s7-(7)-----|-5----------------9--|
|---------------------------|------------------------|---------------------|
|---------------------------|------------------------|---------------------|
|---------------------------|------------------------|---------------------|


C D G5/DG
Q E. S E E S S S S
| | | | | | | | |
/ / / / / / / / /

|-3-|
E E E E S E e E E
|--5------5-5--5---5-5-5---------------|
|--5------5-5--5---5-5-5---------------|
|--5------5-5--5---5-5-5----7------7---|
|--5------5-5--------5-5----7------7---|
|--5------5-5--------5------7------7---|
|--5-----------------------------------|
|
| S a S E E S S e S S E a E
|---------------------------7----------|
|--8------8----5-5---------------------|
|-(9)-7h9-9----5-5---5-5s7-(7)---7s5---|
|--------------------------------------|
|--------------------------------------|
|--------------------------------------|

end Rhy Fig 2A-|
F
Q E E Q E S S W
| | | | | | |
/ / / / / / /

Q E. S E E E E Q E. S E E E E
|-0------5------------3-----|-5----5---------------5-0--||
|-0------0----0-1---1-1-0---|-5----5------5--------5-0--||
|-0------0----0-2-------0---|-5----5------5--------5-0--||
|-0------0------3-------0---|-5----5------5------5------||
|-0-------------------------|-5----5--------5-----------||
|-0-------------------------|---------------------------||
|
| E S S +E S S S S Q E Q +S S S S S S E Q
|-----------3p0-1-3p1---1---|-3---(3)---3------3--------||
|-3-------------1-3p1---1---|-5---(5)-----5-------------||
|-4p0-----------------------|-5---(5)-5-----5-----------||
|-----0-(0)-----------------|---------------------------||
|---------------------------|---------------------------||
|---------------------------|---------------------------||
|
| Gtr III
| W E E S S S S Q. E
|---------------------------|-0-------------------------||
|---------------------------|-1-------------------------||
|---------------------------|-0-0-------0------------x/-||
|---------------------------|-2----2------3----------x/-||
|---------------------------|-3-------3-----3--------x/-||
|---------------------------|---------------------------||


Verse 2
w/Rhy Fig 1
Gtr II
H. S S S S H +S s S S S S S S
|-^7------------------------|---7------------(7)------7----------------|
|-^7---------------8---10---|---8------------(8)-----------10-----8----|
|-^7-----------------7----7-|---7------------(7)--7------7-----7-----7-|
|---------------------------|------------------------------------------|
|---------------------------|------------------------------------------|
|---------------------------|------------------------------------------|
|
| Gtr III
| H. E S S Q. E S S S S E E
|-<7>-----------------------|------------------------------------------|
|-<7>-----------------------|-<12>-------------------------------<5>---|
|-<7>-------------------0---|-<12>---------------<5>-------------------|
|-------------------------0-|-<12>-----<5>---<5>-----<5>---<5>---------|
|---------------------------|----------------<5>-----------<5>---------|
|---------------------------|----------------------------3-------------|


Q.. S E S S S S S S
|--7----------7------------------|
|--7-------------7----8---10-----|
|--7-------7-------7----7----7---|
|--------------------------------|
|--------------------------------|
|--------------------------------|
|
| H E E Q
|-<7>----------------------------|
|-<7>----------------------------|
|-<7>--------11------11----------|
|---------------12---12----------|
|--------------------------------|
|--------------------------------|


S E. +Q +Q. e
|---7--(7)-----(7)-------(7)-----------------|
|---7h==8------(8)-------(8)-----------------|
|---7--(7)-----(7)-------(7)--------------7--|
|--------------------------------------------|
|--------------------------------------------|
|--------------------------------------------|
|
| E E E E E E S S E
|--------------------------------------------|
|--------------<5>-----------------------<5>-|
|-<12>-----<5>-----------<7>---------<5>-----|
|-<12>-------------<7>-------<4>-<5>---------|
|--------------------------------------------|
|--------------------------------------------|


W H +E E S S S S
|-^5-----------------|-^-8---------(8)--------------|
|-^5-----------------|-^-8---------(8)----7---------|
|-^5-----------------|-^-9---------(9)-------7------|
|--------------------|-^10--------(10)----------7-0-|
|--------------------|------------------------------|
|--------------------|------------------------------|
|
| H. E E H. S S e
|--------------------|------------------------------|
|-<5>----------------|------------------------------|
|-<5>--------------9-|---9---------------------11---|
|-<5>-----------10---|--10------------------12------|
|--------------------|-------------------12---------|
|--------------------|------------------------------|


E Q. +H
|------------------------------------|
|-----0-------(0)--------------------|
|--0---------------------------------|
|-(0)--------------------------------|
|------------------------------------|
|------------------------------------|
|
| H E E E E
|------------------------------------|
|-12----------------------------<12>-|
|-12------------------<12>-----------|
|-12-----------------------<12>------|
|------------------------------------|
|------------------------------------|


~~~~
E S S +E S S S S E E E H. Q
|-----2p0-(0)--------2------0---|---------------------------------|
|--3-----------3--------3-----3-|--3------------------------------|
|--2--------------2-------2-----|---------------------------------|
|--0----------------------------|---------------------------------|
|-------------------------------|---------------------------------|
|-------------------------------|---------------------------------|
|
| Q. E H Q.. S +E E E E
|-------------------------------|-<7>--------------------------14-|
|-<7>---------------------------|-<7>----------------<12>------15-|
|-------------------<7>---------|-<7>------<7>-(<7>)--------------|
|-<7>---------<7>---------------|-------------------------<12>----|
|-------------------------------|---------------------------------|
|-------------------------------|---------------------------------|


~~
H Q S +S e H. Q
|--------------------------------|-------------------------|
|-----------------10pb12r(10)--8-|-7-----------------------|
|--------------------------------|-------------------------|
|--------------------------------|-------------------------|
|--------------------------------|-------------------------|
|--------------------------------|-------------------------|
|
| H. S S e H Q E E
|-15--------------------------10-|-7-----------------------|
|-15----------------------12-----|-7--------<7>--------<7>-|
|--------------------------------|-------------------------|
|--------------------------------|----------------<12>-----|
|--------------------------------|-------------------------|
|--------------------------------|-------------------------|


| H a +E e S +S S S
|------------------------------------------------------10------------------------------------|
|-----------------------------------10b12==(10)r-------------------10pb12r(10)----------8----|
|------------------------------------------------------------------------------------------9-|
|--------------------------------------------------------------------------------------------|
|--------------------------------------------------------------------------------------------|
|--------------------------------------------------------------------------------------------|
|
| S S E +S S E +S S E a +E a +E
|--------------------------------------------------------------------------------------------|
|-<12>-----------------------------------------------------10b12==(10)r--------10pb12r(10)---|
|------<12>--------------------------------------<12>----------------------------------------|
|-----------<12>-(<12>)-<12>-<12>---------(<12>)------<12>-----------------------------------|
|--------------------------------------------------------------------------------------------|
|--------------------------------------------------------------------------------------------|


E E Q Q E S S E E Q E S S S S e
|-----------------------|-----------------------------|
|--8\---------------8---|-8\-------------8----8-----8-|
|---------------------9-|------------------9-----9----|
|-----------------------|-----------------------------|
|-----------------------|-----------------------------|
|-----------------------|-----------------------------|
|
| H E E E E Q.. S +E E S S E
|--8----------------8---|-8--------------8---10-10-10-|
|-10-------------10-----|-8--------8-(8)-8---10-10-10-|
|--9--------------------|--------------------11-11-11-|
|-----------------------|-----------------------------|
|--------------0--------|-----------------------------|
|-----------------------|-----------------------------|


S +E. +Q H Q E S S E S S E S S
|------------------------------|------------7-------7----7------||
|-10b12==(10)r(10)-------------|-------------------------0------||
|------------------------------|-------5s7-(7)-5s7-(7)-----7s===||
|------------------------------|--------------------------------||
|------------------------------|--------------------------------||
|------------------------------|--------------------------------||
|
| H. E E Q E. S E E +S S E
|-10---------------------10----|-2--2----2--2--2---(2)-2-2------||
|-12------------------------12-|-3--3----3--3--3---(3)-3-3------||
|-12---------------------------|-2--2----2--2--2---(2)-2-2------||
|------------------------------|-0--0----0--0--0---(0)-0-0------||
|------------------------------|--------------------------------||
|------------------------------|--------------------------------||


Chorus
w/Rhy Fig 2 + 2A
Gtr II
~~
H +E E E S S s E. E S S e S S S a S e
|-5--------(5)\---------|----------------------7-------5--|
|-------------------8---|-8-8-------8---8-----------------|
|-5--------(5)\-------9-|-------------9---5s7-(7)-7s5-(5)-|
|-----------------------|---------------------------------|
|-----------------------|---------------------------------|
|-----------------------|---------------------------------|



Q. S S S S S S E E H E S S s S S S H H
|-3------3s0----3-------------|-3--------------7---7s5-|--5-------------------|
|---------------3h=6------6---|-5----------------------|----------------------|
|-4------------------5----5---|-5----------5s7---7---5-|-(5)------------------|
|-----------------------------|------------------------|----------------------|
|-----------------------------|------------------------|----------------------|
|-----------------------------|------------------------|----------------------|


S S E +S S E E S S S a S e
|---3-(3)-(3)-3-(3)------------7------5---|
|---3h=5--(5)-3h=5------------------------|
|-------------------------5s7-(7)-7s5-----|
|-----------------------------------------|
|-----------------------------------------|
|-----------------------------------------|


CVIII
E E E S S E E S S S S
| | | | | | | | | | |
/ / / / / / / / / / /

Q E S S S S E E S S Q. S S S S S S S S e
|-3-----------------------|-------------------------------||
|-3--------8-8-8--------8-|-8-------8---8-8---8-----8-----||
|-4-----/9-----------/9---|-----------9-----------9-------||
|-------------------------|-------------------------------||
|-------------------------|-------------------------------||
|-------------------------|-------------------------------||


Guitar Solo
Fadd2
S S E E S S S E S E S S
| | | | | | | | | | | |
/ / / / / / / / / / / /

E E E. S E E S S E
|-----5-5----5----------------5------------5---5-x---|
|-----6-6----6----------------6------------6---6-x---|
|-----5-5----5----------------5------------5---5-x---|
|-7-----7----7-7---------------------------7---7-x---|
|-5-----5----5-5---------------------------5---5-----|
|----------------------------------------------------|
|
| ~
| Q E. s S a +S S S a +E E
|-8----------8------------------8--------------------|
|----------------11b13==(11)r-----11b13==(11)r-------|
|----------------------------------------------------|
|----------------------------------------------------|
|----------------------------------------------------|
|----------------------------------------------------|


CVIII Fadd2
E E E S S S E S E S S E E E S S S E S E S S
| | | | | | | | | | | | | | | | | | | | | |
/ / / / / / / / / / / / / / / / / / / / / x

Q E. S E E E S S Q E. S E E E. S
|--5---------5----5-----------5--5-5-|--5--------------5---------5---5----5---5------5--|
|--5---------5----5-----------5--5-5-|--6--------------6---------6---6----6---6------5--|
|--5---------5----5-----------5--5-5-|--5--------------5---------5---5----5---5------5--|
|--5---------5------5----5----5--5-5-|--7--------------7-------------7----7---7------5--|
|--5---------5------5---------5--5-5-|--5--------------5-------------5----5---5------5--|
|------------------------------------|--------------------------------------------------|
|
| ~~~~~~~
| S S Q. S S S S +E E s S S S +S S S S +Q. S S
|--------12---------8------8-(8)-----|-12p8---------------------------------------------|
|---------------------11-------------|------8-------------------------------------------|
|-10s12-(12)-------------------------|--------10b12==(10)r-10-8------------------10s12--|
|------------------------------------|--------------------------10-(10)-----------------|
|------------------------------------|--------------------------------------------------|
|------------------------------------|--------------------------------------------------|


C D G G Am7
E E E. S E E S S e H Q Q
| | | | | | | | | | | |
/ / / / / / / / / / / /

Q E. S E e E E Q E. S E E S S S S
|---5----5--5-------------------7---|-0--0--0--0--0---------|
|---5----5--5--------5----------7---|-0--0--0--1--0---------|
|---5----5--5--------5----------7---|-0--0-----0--0---------|
|---5----5-----5-----5----7-----7---|-0-------------2p0-----|
|---5----5-----5-----5----7-----7---|-0-----------------2p0-|
|-------------------------0-----0---|-0---------------------|
|
| ~~~~~~~~~~~~
| H S S e a S S S S H +E E S E S
|--12---------12--------------------|-----------------------|
|----------------13---------10------|-----------------------|
|-(12)--------------12-9s11----11s7-|-7-------(7)---9-7---7-|
|-----------------------------------|-----------------------|
|-----------------------------------|-----------------------|
|-----------------------------------|-----------------------|


G
W
|
/

Q E. S E E E E
|--0---0--0--0--5-5--------------5--------------||
|--0---0--0-------0--------------0--------------||
|--0---0----------0--------------0--------------||
|--0--------------0--------------0--------------||
|--0--------------0--------------0--------------||
|-----------------------------------------------||
|
| +H +E E S a +E a +S
|-----------------------------------------------||
|-------------------10b12==(10)r---10b12==(10)r-||
|-(7)-------(7)---------------------------------||
|-----------------------------------------------||
|-----------------------------------------------||
|-----------------------------------------------||


Verse 3
w/Rhy Fig 1 + Fill 1
Gtr II
S a +E. +H Q
|-----------------------------------|
|---10b12==(10)-(10)r---------------|
|-----------------------------------|
|-----------------------------------|
|-----------------------------------|
|-----------------------------------|


~~~~
H E a +E +E e H.. e
|-------------------------------------------|--------------------|
|-------------------10b12==(10)r=====(10)-8-|--7-----------------|
|-------------------------------------------|------------------7-|
|-------------------------------------------|--------------------|
|-------------------------------------------|--------------------|
|-------------------------------------------|--------------------|



|-3--|
H E a +E S S +S S S
|----------------------------10------------------|
|--------------10b12==(10)r-(10)-10pb12r(10)p8---|
|----------------------------------------------9-|
|------------------------------------------------|
|------------------------------------------------|
|------------------------------------------------|



~~~~
+H. Q H Q S +S S S
|--------------------|--------------------------------|
|--------------------|---------------10pb12r(10)-8----|
|--(9)---------------|-----------------------------9--|
|--------------------|--------------------------------|
|--------------------|--------------------------------|
|--------------------|--------------------------------|



Q. E H H E E +E a +E
|-------------------------|-------------------------------------|
|--8----------------------|-----------10b12==(10)r-10b12==(10)r-|
|-------------------------|-------------------------------------|
|-------------------------|-------------------------------------|
|-------------------------|-------------------------------------|
|-------------------------|-------------------------------------|



a +H. a +S +S S S
|---------------------------------------------|
|-10b12==(10)r-----------10b12==(10)r(10)-8---|
|-------------------------------------------9-|
|---------------------------------------------|
|---------------------------------------------|
|---------------------------------------------|



S S +Q. E S +S a +E e
|-----------------------------------------------------------|
|-8-10b12==(10)r-----------------10b12==(10)r-10pb12r(10)-8-|
|-----------------------------------------------------------|
|-----------------------------------------------------------|
|-----------------------------------------------------------|
|-----------------------------------------------------------|



H.. E a +H Q a +E E
|-------------------|-------------------------------------10--|
|-7-----------------|-10b12==(10)r-----------10b12==(10)r-----|
|-----------------9-|-----------------------------------------|
|-------------------|-----------------------------------------|
|-------------------|-----------------------------------------|
|-------------------|-----------------------------------------|



S +S S S S S S a +S S E. +Q H E E +E E
|----------------------------------------------------|--------------------------------10--|
|--10pb12r(10)-8------8---10b11=(10)r-----8----(8)---|--------------10b12==(10)r----------|
|----------------9-----------------------------------|------------------------------------|
|----------------------------------------------------|------------------------------------|
|----------------------------------------------------|------------------------------------|
|----------------------------------------------------|------------------------------------|



a +H H a +E +E Q E S S S S S a S
|----------------------------------------|-----------------------------------7------7-----||
|-10b12==(10)r---------------------------|-10b12==(10)r(10)-------------------------------||
|----------------------------------------|------------------------------5s7-(7)--7----7s5-||
|----------------------------------------|------------------------------------------------||
|----------------------------------------|------------------------------------------------||
|----------------------------------------|------------------------------------------------||


Chorus
w/Rhy Fig 2 (1st 2 bars only) + Rhy Fig 2A
Gtr II
H H H E S S S S e
|--------------------|----------------7---5-|
|--------------------|----------------------|
|-5------------------|------------5s7---5---|
|--------------------|----------------------|
|--------------------|----------------------|
|--------------------|----------------------|


Gtr II
H E S s s S S S
|-3----------/8-------------|
|---------------8-8----10---|
|-4----------/9-----------9-|
|-------------------10------|
|---------------------------|
|---------------------------|


~~~~~~
|-3-|
H E a +E S a +E S E E E +Q H
|---------------------------------------------|---------------------|
|-8----------10b12==(10)r---10b12==(10)r---10-|---8-----------------|
|---------------------------------------------|-----9-(9)-----------|
|---------------------------------------------|---------------------|
|---------------------------------------------|---------------------|
|---------------------------------------------|---------------------|



H E S S S a S e Q. S S S a +E. S S E
|---------------7-----5---|-3---------------------------------|
|-------------------------|----------8-8-10b12==(10)r-8---8---|
|-----------5s7---7s5-----|-4-----/9--------------------9-----|
|-------------------------|-----------------------------------|
|-------------------------|-----------------------------------|
|-------------------------|-----------------------------------|


Gtr I
W
Q.. S E E E E
|-5----------5--------------------0------------||
|-5----------5--5------5----------0------------||
|-5-------------5------5-----------------------||
|-5-----------------5--5-----------------------||
|-5--------------------------------------------||
|----------------------------------------------||
|
|Gtr II
| ~~~
| H +E E E a +S +S
|------------------10-10-----------------------||
|-8------------(8)-------10b12==(10)r(10)b12===||
|----------------------------------------------||
|----------------------------------------------||
|----------------------------------------------||
|----------------------------------------------||
|
|Gtr III
| Q S S S S Q. E
|-0--------------------------------------------||
|-1--------------------------------------------||
|-0--------0-----------------------------------||
|-2----2-----3---------------------------------||
|-3------3------3------------------------------||
|----------------------------------------------||


Guitar Solo
w/Rhy Fig 1 (1st 7 bars)
|--------------3---------------|
+S +S +S +S +S +S +S +S +E a +E E S +S S S
|-------------------------------------------------------------------------10--------------------|
|-(10)r(10)b12=(10)r(10)b12=(10)r(10)b12=(10)r(10)b12=(10)r=(10)b12=(10)r-----10pb12r(10)--8----|
|---------------------------------------------------------------------------------------------9-|
|-----------------------------------------------------------------------------------------------|
|-----------------------------------------------------------------------------------------------|
|-----------------------------------------------------------------------------------------------|
|
| H E E E E
|--<7>------------------------------------------------------------------------<7>---------------|
|--<7>------------------------------------------------------------------------------------------|
|--<7>------------------------------------------------------------------------------------------|
|-------------------------------------------------------------------------<4>-------------<7>---|
|-----------------------------------------------------------------------------------------------|
|-----------------------------------------------------------------------------------------------|



|3-| |3|
E Q +Q +E e a +E e S
|-----------------------10-----------------10---|
|-8-10b12==(10)---(10)r----10b12==(10)r-------8-|
|-----------------------------------------------|
|-----------------------------------------------|
|-----------------------------------------------|
|-----------------------------------------------|
|
| Q Q Q s s e
|-7----------------------------------------10---|
|-8--------------------------------10---12------|
|-----------------------------------------------|
|-----------------------------------------------|
|-----------------------------------------------|
|-----------------------------------------------|

~~~~~~~
|--3---|
S E. +Q +E S S +E E a +H +E a +e +E E E
|---------------------------------10-|-------------------------------------------------|
|-----7--(7)---(7)---10b12==(10)r----|-10b12==(10)r======(10)-10b12==(10)r(10)p8-------|
|------------------------------------|---------------------------------------------9---|
|------------------------------------|-------------------------------------------------|
|------------------------------------|-------------------------------------------------|
|------------------------------------|-------------------------------------------------|
|
| Q E. S +E E E E W
|-<7>------------------------<7>---7-|-------------------------------------------------|
|-<7>------------------------<7>-----|-------------------------------------------------|
|-<7>------------------------<7>-----|---------<5>-------------------------------------|
|------------------------------------|---------<5>-------------------------------------|
|---------2--------------------------|-------------------------------------------------|
|------------1-(1)s2-----------------|-------------------------------------------------|



|-------3-------|
E a +E E e e e E S S +E
|---------------------------------------------------|
|---8--10b12==(10)r-8----8----8--------10b12==(10)r-|
|---------------------9-----------------------------|
|---------------------------------------------------|
|---------------------------------------------------|
|---------------------------------------------------|
|
| H E E E E
|--------------------------------<5>----------------|
|----------------------------<5>--------------------|
|---------------------------------------------------|
|---------------------------------------------------|
|-<12>----------------------------------------<12>--|
|-<12>----------------------------------------<12>--|




|--3--|
a +E E E a +E E a +E E S +S S S
|--------------------------------10--------------------------------------------|
|-10pb12r=(10)--8---10b12==(10)r---------10b12==(10)r-------10pb12r(10)---8----|
|-----------------9----------------------------------------------------------9-|
|------------------------------------------------------------------------------|
|------------------------------------------------------------------------------|
|------------------------------------------------------------------------------|
|
| +Q.. s E E E E
|-----------------------------------------------------<12>---------------------|
|------------------------------------------------------------------------------|
|-----------------------------------<12>--------<12>-------<12>----------------|
|-----------------------------------------------------------------------<12>---|
|--------(<12>)----------------------------------------------------------------|
|--------(<12>)----------------------------------------------------------------|


a +H S +S S S a +E E
|--------------------------------------------------------10-|
|-10b12===(10)r-------------10pb12r(10)-8---10b12==(10)r----|
|-----------------------------------------9-----------------|
|-----------------------------------------------------------|
|-----------------------------------------------------------|
|-----------------------------------------------------------|
|
| +Q E E +H E
|-----------------------------------------------------------|
|-----------------------------------------------------------|
|--------------------<5>---(<5>)----------------------------|
|--------(<12>)--<5>----------------------------------------|
|-----------------------------------------------------------|
|-----------------------------------------------------------|

Q E. S E E E
|--7----7------7---------------7---------------7-------------------------||
|--7----7------7---------------7---------------7-------------------------||
|--7----7------7----------7----7---------------7-------------------------||
|--7----7-----------------7----7---------------7-------------------------||
|--7----7-----------------7----7---------------7-------------------------||
|--0----0-----------------0----0---------------0-------------------------||
|
| H a +E. a +S +S a +E
|------------------------------------------------------------------------||
|-10-------------10b12==(10)r----10b12==(10)-(10)r-10b12==(10)r----------||
|------------------------------------------------------------------------||
|------------------------------------------------------------------------||
|------------------------------------------------------------------------||
|------------------------------------------------------------------------||
|
| E Q S S +E E E
|------------------------------------------------------------------------||
|------------------------------------------------------------------------||
|-11------------------------------------------11-------------------------||
|-------------12--------(12)------------------12-------------------------||
|-12-12----12------------------------------------------------------------||
|-----------------------------10--------------------------------10-------||



Out-Chorus
w/Rhy Fig 2 (1st 7 bars) + 2A

Gtr II
a +H Q E a +S S
|-10b12==(10)r---------------------------10-|
|---------------------------10b12==(10)r----|
|-------------------------------------------|
|-------------------------------------------|
|-------------------------------------------|
|-------------------------------------------|


~~
e E Q +E S S S S e H E S S S S E
|-------------------7---5-|-3---------------------------|
|-10----------------------|--------------------8-10-8---|
|----9-9----(9)S5s7---5---|-4-------------7h9-------9---|
|-------------------------|-----------------------------|
|-------------------------|-----------------------------|
|-------------------------|-----------------------------|


H Q a S S S S H Q E S S
|------------------------|-------------------|
|-8----------------------|---------------8---|
|------------------------|-----------------9-|
|--------------7S9-9-9p7-|-7-----------------|
|------------------------|-------------------|
|------------------------|-------------------|



E E Q Q S S S +S
|--------------------------10----------|
|-8----------------10pb12=====10r(10)--|
|--------------------------------------|
|--------------------------------------|
|--------------------------------------|
|--------------------------------------|



Q. S S a +S +S S S a +E S S
|--------------------------------------------------|
|-8------8-8-10b12==(10)r(10)-8---10b12==(10)r-8---|
|-------------------------------9----------------9-|
|--------------------------------------------------|
|--------------------------------------------------|
|--------------------------------------------------|


Gtr I
H.=H
W W
Q E. S E e S S E W
|-5--------5--5--5-0-0-0-|-^0----------*|
|-5-----5--5--5--5-1-1-1-|-^0----------*|
|-5-----------5--5-0-0-0-|-^0----------*|
|-5-----------5----0-0-0-|-^0----------*|
|-5-----------5----------|-------------*|
|------------------------|-------------*|
|
|Gtr II
| ~~
| E Q. +E E Q E E +H.
|------------------------|--7----------*|
|------------------------|--8----------*|
|----9-------(9)---------|----7-(7)----*|
|------------------------|-------------*|
|------------------------|-------------*|
|------------------------|-------------*|
|
|Gtr III
| H. S S E W
|-0----------------------|--3----------*|
|-1----------------------|--0----------*|
|-0--------------------0-|--0----------*|
|-2----------------0-2---|--0----------*|
|-3----------------------|--2----------*|
|------------------------|--3----------*|

 
»
Tvoje obľúbené položky
Tvoje obľúbené položky
»
Najnovšie videá
Najnovšie videá

»
Tvoje obľúbené piesne
Tvoje obľúbené piesne
»
Najnavštevovanejšie piesne
Najnavštevovanejšie piesne
Angie - verzia 1 - akordy a text

Angie - akordy

Wild Horses - akordy a text

Satisfaction - Akordy a text

Angie Version 5 - akordy a text

Angie - Konečná Verze - akordy

Paint It Black - akordy a text

Wild Horses - preklad

Angie - verzia 2 - akordy a text

Wild Horses - akordy a text

I Can´t Get No ( Satisfaction ) - akordy a text

Ruby Tuesday - akordy a text

Lady Jane - preklad

Mixed Emotions - preklad

Don\'t Stop - taby

Rough Justice - preklad

Angie - preklad

Anybody Seen My Baby? - preklad

(I Can´t Get No) Satisfaction - preklad

Satisfaction - preklad

viac

»
Nové albumy interpreta
Nové albumy interpreta



home | interpreti | register piesní | cd & dvd shop | pripomienky/nápady | kontakt | ochrana údajov | inzercia