Rolling Stones


piesne (760)

  texty (255)
  akordy (255)
  taby (199)
  preklady (106)


články (587)
Fotky (31)
diskusia
videá
diskografia
v obchode
odkazy
koncerty
sťahuj



pridaj vlastný článok

Rolling Stones:
Wine’n’Roll: THE ROLLING STONES - Poslyšte s námi příběh, který se zrodil ve slunném Španělsku, kde parta rockový... - spark


Pain:
PAIN pustili do světa předělávku ROLLING STONES - PAIN jsou známí svým mixem chytlavých melodií, majestátních harmonií a industriá... - spark


Rolling Stones:
Poprvé v kompletní podobě vyjde rekordní koncert Rolling Stones. V Riu
hráli pro 1,5 milionu lidí
- V únoru uplynulo patnáct let od vystoupení, které legendární The Rolling Stones ode... - musicserver.cz


Beatles:
RETRO: David Bowie tisíckrát jinak. Ať už experimentoval s halucinogeny,
amfetaminy nebo japonským divadlem, vždy působil, že přesně ví, co dělá
- Kdo je David Bowie? Vlastně je to jednoduché: nejvlivnější hudební umělec všech d... - IREPORT


Rolling Stones:
Rolling Stones by měli rušný rok - Nebýt koronaviru, měli by britští rockeři Rolling Stones velmi rušný rok. Celé ja... - novinky.cz


Doves:
Nová alba: Marilyn Manson, Doves, The Flaming Lips i reedice Rolling Stones - Blíží se předvánoční čas a na hudební trh se dostávají jak alba silných hude... - novinky.cz


Rolling Stones:
Rolling Stones má v šiestich rozličných desaťročiach album na prvej
priečke
- Britská rocková skupina The Rolling Stones sa stala prvou hudobnou formáciou, ktorej a... - zoznam.sk


HEAD SOUP:
Rolling Stones měli v každém desetiletí své existence album na prvním
místě britského žebříčku
- Britští Rolling Stones jsou první hudební formací, jejíž alba se v ostrovních ž... - novinky.cz


Rolling Stones:
Obrazem: Rolling Stones jsou optimisté. Otevřeli obchod v Londýně,
prodávají i roušky
- Prodávají kabát za 6800 korun nebo bavlněné roušky po 440 korunách za kus.... - aktualne.cz


Rolling Stones:
Rolling Stones jsou s albem Goats Head Soup opět na čele žebříčku - Londýn - Rocková kapela Rolling Stones se stala první hudební skupinou v historii... - ceskenoviny.cz


 

Rolling Stones

Fanúšikov: 3



A B C Č D E F G H CH I J K L Ľ M N O P Q R S Š T U V W X Y Z Ž



ako:
Rolling Stones - Winter
Rolling Stones - Winter

tlač

edituj
Rok vzniku: 1965
Pesničku videlo 3017 návštevníkov.

Kvalita tabov : bez hodnotenia
Hodnotilo ľudí: 0 ohodnoť aj ty
Autor hudby: Rolling Stones
Intro:

G Am
E||--3--3-3-----------3--3--0-0-0-0-0-0--|
B||--3--3—-3----------3--3--1-1-1-1-1-1--|
G||--0--0---0---0--0—-0--0—-2-2-2-2-2-2--|
D||--0--0----0—-0--0—-0--0--2—2-2-2-2-2--|
A||--2--2-------2--2—-2-----0—0-0—0-0-0--|
E||--3--3-------3--3—-3------------------|
]
e||------------------------------10—-8-7-|
B||------------------------------12-10-8-|
G||--------------------------------------|
D||--------------------------------------|
A||--------------------------------------|
E||--------------------------------------|

G Am G
e||-3-3-3---3-3—-0---------------3---3---3--|
B||-3-3-3---3-3—-1----(0)---------3------3--|
G||-0-0-0---0-0—-2--(0)---(0)------0-----0--|
D||-0-0-0---0-0—-2---5/9-7-5-7------0----0--|
A||-2-2---2-2-2—-0---------------------2-2--|
E||-3-3---3-3-3-----------------3------3-3--|
]
e||-----------------8/10--8-7---------------|
B||-------------------12-10-8---------------|
G||-----------------------------------------|
D||-----------------------------------------|
A||-----------------------------------------|
E||-----------------------------------------|

Couplet:

Childhood living is easy
to do
Bm G Bm G
e||-----2-2-----2-2-3---------3-3-|-2-2-----3----------------|
B||----3—-3-3---3-3-3-----3---3-3-|-3-3-----3----------------|
G||---4---4--4—-4-4-0------0—-0-0-|-4-4---4-0----------------|
D||--4----4---4-4-4-0-------0-0-0-|-4-4—-4—-0----------------|
A||-2-----2-----2-2-2---------2-2-|-2-2-2---2----------------|
E||-----------------3---------3-3-|---------3----------------|
]
e||----2--------------------------|--------------------------|
B||----3--------------------------|-------------3------------|
G||-------------------------------|----------2/4-4/2/0-------|
D||-------------------------------|-------------------2-0----|
A||-------------------------------|--------------------------|
E||---------------7/3-------------|----------------------7/5-|

The things I bought them
you wanted for you
Am G C D G D
e||---0-0-0-3-0-0-0-------3-3-3-3-3-----------------|
B||---1-1-1-3-1-1-1-2-2—2-3-3-3-3-3-3-3-3-3-(3)-(3)-|
G||---2-2-2-0-0-0-0-3-0—3-0-0-0-0-0-2-2-2-4-(0)-(2)-|
D||---2-2-2-0-2-2-2-0---0-0-0-0-0-0-----------------|
A||-0-0-0-0---3-3-3-------2-2-----------------------|
E||-----------------------3-------------------------|
]
e||-------------------------------------------------|
B||-------------------------------------------------|
G||--------------------------------------------2h4--|
D||-------------------------------------------------|
A||-------------------------------------------------|
E||-------------------------------------------------|

Graceless lady you know
who I am
Bm G Bm G
e||-2-2-2—2-2-3-3-----------2-----2---3-3-3-|
B||-3-3-3-3-3-3-3-----------3---3-3---3-3-3-|
G||-4-4-4-4-4-0-0-----------4---4-4---0-0-0-|
D||-4---4-4-4-0-0-----------4---4-4---0-0-0-|
A||-2---2-2-2-2-------------2-----2-2-----2-|
E||-----------3---------------------3-----3-|
]
e||-----------------------------------------|
B||-------------------4---------------------|
G||----------------2/4-4/2-0----------------|
D||-----------------------------------------|
A||-----------------------------------------|
E||--------7/3------------------------------|

You know I can't slide through
let you my hands
Am C D G D
e||-----0---0-0-0--0-----------------3---3----3-3-2-2-2-|
B||----1----1-1-1--1-----------------3-3—-3---3-3-3-3-3-|
G||---2-----2-2-0--0-----------------0-0---0—-0-0-2-2-2-|
D||--2------2-2-2--2-2-5-2p0---------0-0----0-0-0-0-0-0-|
A||-0-------0-0-3—-3---------2-0-----2--------2-2-------|
E||-----------------------------3----3--------3-3-------|
]
e||-----0-----------------------------------------------|
B||----1------5--------10/8-----8-----------------------|
G||---2----------------------7/9------------------------|
D||--2--------------------------------------------------|
A||-0---------------------------------------------------|
E||-----------------------------------------------------|

Refrein:

Wild horses couldn't drag me away

Am C D G F C Bm
e||-0----0--0-0-2-2------3-3-3-1-----0-----0-----2-|
B||-1----1--1-1-3-3-----3--3-3-1-----1----1-----3--|
G||-2----0--0-0-2-2----0---0-0-2-----0---0-----4---|
D||-2----2--2-2-0-0---0----0-0-3-----2--2-----4----|
A||-0----3--3-3------2-----2-2-3-----3-3-----2-----|
E||-----------------3------3-3---------------------|
]
e||------------------------------------------------|
B||------------------------------------------------|
G||------------------------------------------------|
D||------------------------------------------------|
A||------------------------------------------------|
E||------------------------------------------------|


Wild, wild horses, couldn't drag me away

Am C D G F C
e||-----0------0--0-0-2-2-3-------3-3-1-1----0------|
B||----1-------1--1-1-3-3-3-------3-3-1-1----1------|
G||---2--------0--0-0-2-2-0-------0-0-2-2----0------|
D||--2---------2--2-2-0-0-0-------0-0-3-3----2------|
A||-0----------3--3-3-----2-------2-2-3-3----3------|
E||-----------------------3-------3-3---------------|
]
e||-------------------------------------------------|
B||-------------------------------------------------|
G||-------------------------------------------------|
D||-------------------------------------------------|
A||-------------------------------------------------|
E||-------------------------------------------------|


Couplet:

I watched you a dull aching
suffer pain

Bm G Bm G
e||---2---2---3--3----------------2-----2--3---------------------|
B||----3--3------3--3-3-3-3-3-3----3----3--3-3-3-3-3-3-3-3-3-3---|
G||-4---4-4--4---0--2-4-4-4p2-0-----4---4--0-4-4-4/2-2-2-2/0-0---|
D||-4-----4------0-------------------4--4--0---------------------|
A||-2------------2--------------------2-2--2---------------------|
E||--------------3-------------------------3---------------------|
]
e||------------------------------------5/7---------7-5-3---------|
B||-------------------------8-7--------------------------5/10/8--|
G||--------------------------------------------------------------|
D||--------------------------------------------------------------|
A||--------------------------------------------------------------|
E||--------------------------------------------------------------|

Now you decided to show me the
same

Am C D G D C
e||--0-----0-0-0-0-0--0-0-0-2-2-2-3-3------2----2-2-0-0-0-|
B||---1----1-1-1-1-1--1-1-1-3-3-3-3—-3------3---3-3-1-1-1-|
G||----2---2-2-2-2-0--2-0-0-2-2-2-0---0------2--2-2-0-0-0-|
D||-----2--2-2-2-2-2----2-2-------0----0------0-0-0-2-2-2-|
A||------0-0-0-0-0-3----3-3-------2-----2-----------3-3-3-|
E||-------------------------------3------3----------------|
]
e||---------------------2--2------------------------------|
B||-------10/12-8--8-8---3--3-----------------------------|
G||---------------9-9-----2--2----------------------------|
D||-------------------------------------------------------|
A||-------------------------------------------------------|
E||-------------------------------------------------------|


No sweeping or offstage
exits lines

Bm G Bm
e||-2-2---------3---------------------2-2-2-3--------------|
B||-3—-3--------3-------3-------------3-3-3-3--------------|
G||-4---4-------0-0h2/4--4/2-0------4-4-4-4-0-2/4-4-4-2----|
D||-4-----------0-------------2/4---4-4-4-4-0--------------|
A||-2-----------2-----------------2-2---2-2-2--------------|
E||-------------3---------------------------3--------------|
]
e||--------5-5-3-------7-5--3--2-------------7-5-3-5p3h5p3-|
B||--------------------------------------------------------|
G||-7------------------------------------------------------|
D||-7------------------------------------------------------|
A||--------------------------------------------------------|
E||--------------------------------------------------------|

Could make me or treat you unkind
feel bitter

Am C D G D
e||-0---0--0-0-0-0-0-0-2-2-2-2-3----3---2-2-2-2-2-2-|
B||-1---1--1-1-1-1-1-1-3-3-3-3-3-----3—-3-3-3-3-3-3-|
G||-2---2--2-0-0-0-0-0-2-2-2-2-0------0-2-2-2-2-2-2-|
D||-2---2--2-2-2-0-0-0-0-0-0-0-0--------0-0-0-0-0-0-|
A||-0---0--0-3-3-3-3-3----- ---2--------------------|
E||----------------------------3--------------------|
]
e||----------------10-10----------------------------|
B||-----------10/12----10/8-10-8--------------------|
G||-------------------------------------------------|
D||-------------------------------------------------|
A||-------------------------------------------------|
E||-------------------------------------------------|

Refrein:

Wild horses couldn't drag me away

Am C D G F C Bm
e||-0----0--0-0-2-2------3-3-3-1---0--0-0-0---2-2-2------|
B||-1----1--1-1-3-3-----3--3-3-1---1--1-1-1---3-3-3------|
G||-2----0--0-0-2-2----0---0-0-2---0--0-0-0---4-4-4------|
D||-2----2--2-2-0-0---0----0-0-3---2--2-2-2---4-4-4------|
A||-0----3--3-3------2-----2-2-3---3--3-3-3---2-2-2------|
E||-----------------3------3-3---------------------------|
]
e||------------------------------------------------------|
B||-------------------------5/7-7------------------------|
G||------7-5-7-------------------------------------------|
D||-----------8/7-5/3-------------------5-7-5-7/9-7-5-7--|
A||------------------------------------------------------|
E||------------------------------------------------------|

Wild, wild horses, couldn't drag me away

Am C D G F C
e||-----0------0--0-0-2-2-3-------3-3-1-1----0------|
B||----1-------1--1-1-3-3-3-------3-3-1-1----1------|
G||---2--------0--0-0-2-2-0-------0-0-2-2----0------|
D||--2---------2--2-2-0-0-0-------0-0-3-3----2------|
A||-0----------3--3-3-----2-------2-2-3-3----3------|
E||-----------------------3-------3-3---------------|
]
e||-------------------------------------------------|
B||--------------------7-7--------------------------|
G||---------------5-7/9-----------------------------|
D||-------------------------------------------------|
A||-------------------------------------------------|
E||-------------------------------------------------|

Solo:
F C F C D G
e||----------------------------------------------------------
B||----------------------------------------------------------
G||----------------------------------------------------------
D||----------------------------------------------------------
A||----------------------------------------------------------
E||----------------------------------------------------------
]
e||----------8b-8-8-8/6b/3---8-6-8b-------------12--12--10---
B||-8-5-8-5-8----------------------------------------------8-
G||--------------------------------10/8/7-5-10/12-----11-----
D||----------------------------------------------------------
A||----------------------------------------------------------
E||----------------------------------------------------------

-----------------------|
-3---3-3-3---3---3-3-3-|
-0h2-4-2-0h2-4p2-0-2-4-|
-----------------------|
-----------------------|
-----------------------|
]
--------------10-------|
-------8/12-12---------|
-----------------------|
-----------------------|
-----------------------|
-----------------------|

Couplet:

I know I a sin and
dreamed you a lie
Bm G Bm G
e||-2-2----3---------2-2-2-2-2-3-------------|
B||-3--3---3-3---3---3-3-3-3-3-3----3--------|
G||-4---4--0-4/2-4/2-4-4-4-4-4-0-2-4--4-4----|
D||-4----2-0---------4-4-4-4-4-0-------------|
A||-2------2---------2-2-2-2-2-2-------------|
E||--------3-------------------3-------------|
]
e||--------------10-10--------------10-10-10-|
B||------------------------------------------|
G||------------------------------------------|
D||------------------------------------------|
A||------------------------------------------|
E||------------------------------------------|


I got my freedom but I don't
have much time
Am C D G D C
e||-----------------2-2-2-3-3-3--3-------2-2-2-2-0-0-0-|
B||----1-1-------1--3-3-3-3-3--3--0----3-3-3-3-3-1-1-1-|
G||---2---2-------0-2-2-2-0-0---------2--2-2-2-2-0-0-0-|
D||--2----------2---0-0-0-0-0---0----0---0-0-0-0-2-2-2-|
A||-0---------3-----------2-2--------------------3-3-3-|
E||-----------------------3-3--------------------------|
]
e||----------------------------------------------------|
B||----------------------------------------------------|
G||----------------------------------------------------|
D||----------------------------------------------------|
A||----------------------------------------------------|
E||----------------------------------------------------|

Faith has tears must
been broken be cried
Bm G Bm
e||-2----3------------2----3-3-------------|
B||-3----3------3-----3----3-3-------------|
G||-4----0-2/4-2------4----0-0-------------|
D||-4----0------------4----0-0-------------|
A||-2----2------------2----2-2-------------|
E||------3-----------------3-3-------------|
]
e||-----------7-5-3-2-2--------3/5-7-7-5-3-|
B||----------------------------------------|
G||----------------------------------------|
D||----------------------------------------|
A||----------------------------------------|
E||----7/3---------------------------------|

Let's do some after love die
living
Am C D G
e||-0-------0------2-2-2-3-3-3-3-3-2-2-2-2-2-|
B||-1-------1------3-3-3-3-3-3-3-3-3-3-3-3-3-|
G||-2-------0------2-2-2-0-0-0-0-0-2-2-2-2-2-|
D||-2-------2------0-0-0-0-0-0-0-0-0-0-0-0-0-|
A||-0-------3------------2-2-2-2-2-----------|
E||----------------------3-3-3-3-3-----------|
]
e||-5/3-3—5-3----8/10-8/10-------------------|
B||-----------------------8------------------|
G||------------------------------------------|
D||------------------------------------------|
A||------------------------------------------|
E||------------------------------------------|

Couplet:

Wild horses couldn't drag me away

Am C D F C Bm
e||-0-0-0-0-0-0-0-0-0-2-2-2-2-3-3-3-1-1-1-0-0-0-0-2-2---------|
B||-1-1-1-1-1-1-1-1-1-3-3-3-3-3-3-3-1-1-1-1-1-1-1-3-3---------|
G||-2-2-2-2-2-0-0-0-0-2-2-2-2-0-0-0-2-2-2-0-0-0-0-4-4---------|
D||-2-2-2-2-2-2-2-2-2-0-0-0-0-0-0-0-3-3-3-2-2-2-2-4-4---------|
A||-0-0-0-0-0-3-3-3-3---------2-2-3-3-3-3-3-3-3-3-2-2---------|
E||---------------------------3-3-3-1-1-1---------------------|
]
e||------------10-10------------------------------------------|
B||-----------------8---------------------------------0h4-7-7-|
G||------------------------------------------------5-2--------|
D||-----------------------------------------------------------|
A||-----------------------------------------------------------|
E||-----------------------------------------------------------|

Wild, wild we'll ride
Horses them some day

Am C D G F C
e||-0-0-0-0-0-0-0-0-0-2-2-2-2-3-3-3-1-1-1-0-0-0-0-----|
B||-1-1-1-1-1-1-1-1-1-3-3-3-3-3-3-3-1-1-1-1-1-1-1-----|
G||-2-2-2-2-2-0-0-0-0-2-2-2-2-0-0-0-2-2-2-0-0-0-0-----|
D||-2-2-2-2-2-2-2-2-2-0-0-0-0-0-0-0-3-3-3-2-2-2-2-----|
A||-0-0-0-0-0-3-3-3-3---------2-2-3-3-3-3-3-3-3-3-----|
E||---------------------------3-3-3-1-1-1-------------|
]
e||-------------10-10-----------------------------3---|
B||----------7p8------5/8-8--------------------3-5----|
G||---------------------------------------------------|
D||---------------------------------------------------|
A||---------------------------------------------------|
E||---------------------------------------------------|

Couplet:

Wild horses couldn't drag me away

Am C D F C Bm
e||-0-0-0-0-0-0-0-0-0-2-2-2-2-3-3-3-1-1-1-0-0-0-0-2-2-|
B||-1-1-1-1-1-1-1-1-1-3-3-3-3-3-3-3-1-1-1-1-1-1-1-3-3-|
G||-2-2-2-2-2-0-0-0-0-2-2-2-2-0-0-0-2-2-2-0-0-0-0-4-4-|
D||-2-2-2-2-2-2-2-2-2-0-0-0-0-0-0-0-3-3-3-2-2-2-2-4-4-|
A||-0-0-0-0-0-3-3-3-3---------2-2-3-3-3-3-3-3-3-3-2-2-|
E||---------------------------3-3-3-1-1-1-------------|
]
e||---------10----------------------------------------|
B||--------8-----------------------------------8-10-12|
G||---------------------------------------------------|
D||---------------------------------------------------|
A||---------------------------------------------------|
E||---------------------------------------------------|

Wild, wild we'll ride
Horses them some day

Am C D G F C
e||-0-0-0-0-0-0-0-0-0-2-2-2-2-3-3-3-1-1-1-0-0-0-0-
B||-1-1-1-1-1-1-1-1-1-3-3-3-3-3-3-3-1-1-1-1-1-1-1-
G||-2-2-2-2-2-0-0-0-0-2-2-2-2-0-0-0-2-2-2-0-0-0-0-
D||-2-2-2-2-2-2-2-2-2-0-0-0-0-0-0-0-3-3-3-2-2-2-2-
A||-0-0-0-0-0-3-3-3-3---------2-2-3-3-3-3-3-3-3-3-
E||---------------------------3-3-3-1-1-1---------
]
e||------------5-5-3------------------------------
B||-----------------------------------------------
G||-----------------------------------------------
D||-----------------------------------------------
A||-----------------------------------------------
E||-----------------------------------------------

Outro:

D G
-2-2-3-------------||
-3-3-3--------3-3--||
-2-2-0--------4/2--||
-0-0-0-------------||
-----2-------------||
-----3-------------||

--------3----------||
-------------------||
-----2/4-----------||
-------------------||
-------------------||
-------------------||

Intro:

| G | Am | x2

Couplet:

Bm G Bm G
Childhood living is easy to do
Am G C D G D C
The things you wanted I bought them for you
Bm G Bm G
Graceless lady you know who I am
Am G C D G D
You know I can't let you slide through my hands

Refrein:

Am C D G F C Bm
Wild horses couldn't drag me away
Am C D G F C
Wild, wild horses couldn't drag me away

I watched you suffer a dull aching pain
Now you decided to show me the same
No sweet vain exits or off stage lines
Could make me feel bitter or treat you unkind

Refrein:

Am C D G F C Bm
Wild horses couldn't drag me away
Am C D G F C
Wild, wild horses couldn't drag me away

Solo:

| F | C | x2
| D | G |

Couplet:

I know I've dreamed you a sin and a lie
I got my freedom but I don't have much time
Faith has been broken, tears must be cried
Let's do some living after love die

Refrein:

Am C D G F C Bm
Wild horses couldn't drag me away
Am C D G F C
Wild, wild horses we'll ride them some day

Am C D G F C Bm
Wild horses couldn't drag me away
Am C D G F C
Wild, wild horses we'll ride them some day

Outro:

| D G |


 
»
Tvoje obľúbené položky
Tvoje obľúbené položky
»
Najnovšie videá
Najnovšie videá

»
Tvoje obľúbené piesne
Tvoje obľúbené piesne
»
Najnavštevovanejšie piesne
Najnavštevovanejšie piesne
Angie - verzia 1 - akordy a text

Angie - akordy

Wild Horses - akordy a text

Satisfaction - Akordy a text

Angie Version 5 - akordy a text

Angie - Konečná Verze - akordy

Paint It Black - akordy a text

Wild Horses - preklad

Angie - verzia 2 - akordy a text

Wild Horses - akordy a text

I Can´t Get No ( Satisfaction ) - akordy a text

Ruby Tuesday - akordy a text

Lady Jane - preklad

Mixed Emotions - preklad

Don\'t Stop - taby

Rough Justice - preklad

Angie - preklad

Anybody Seen My Baby? - preklad

(I Can´t Get No) Satisfaction - preklad

Satisfaction - preklad

viac

»
Nové albumy interpreta
Nové albumy interpreta



home | interpreti | register piesní | cd & dvd shop | pripomienky/nápady | kontakt | ochrana údajov | inzercia