Aleš Brichta


piesne (179)

  texty (152)
  akordy (63)
  taby (24)
  preklady (0)


články (62)
Fotky (19)
diskusia
videá
diskografia
v obchode
odkazy
koncerty
sťahuj



pridaj vlastný článok

Aleš Brichta:
Na Benátskou! za Alešem Brichtou - Nestor českého rocku a metalu Aleš Brichta má na legendární pražské Barče za seb... - musicserver.cz


Aleš Brichta:
Aleš Brichta: „Jednou jsem strašným způsobem ožral Bruce Dickinsona.“ - Jedním z atraktivních materiálů dubnového Sparku je nepochybně Ušní průplach s A... - spark


Aleš Brichta:
SOUTĚŽ: Vyhrajte lístky na koncert Aleše Brichty na Barče - Ve čtvrtek 14. 4. křtí Aleš Brichta v Praze v legendárním KD Barikádníků svou no... - spark


Arakain:
ALEŠ BRICHTA Ztráty a nálezy - Ztráty, nálezy, křivky, podpásovky Dnes dvaašedesátiletý zpěvák Aleš Brichta, j... - rockandpop.cz


Aleš Brichta:
Aleš Brichta si v autobiografii 'Ztráty a nálezy' nebere servítky - Kniha vzpomínek nazvaná "Ztráty a nálezy" jednoho z největších zpěváků tuzemsk... - musicserver.cz


Arakain:
RECENZE: Aleš Brichta ve svých pamětech vypouští žluč a okopává
kotníky
- Bývalý frontman kapely Arakain Aleš Brichta si v knižní autobiografii Ztráty a nál... - idnes.cz


Aleš Brichta:
Český spevák o neočkovaných: Ste KRETÉNI... Vyhyniete ako prví a bude
pokoj!
- PRAHA - Mnohých ľudí rozčuľuje v dnešnej situácii veľká skupina spoluobčanov, k... - topky.sk


Aleš Brichta:
Příběh českého hitu: Aleš Brichta - Barák na vodstřel - Oldies but goldies. Staré, ale dobré. Do této pozvolna se rozrůstající kategorie m... - IREPORT


Aleš Brichta:
Aleš Brichta se zranil sám při polykání léku - To je mazec!  The post Aleš Brichta se zranil sám při polykání léku appeared firs... - evropa2.cz


Aleš Brichta:
Chvíle strachu Aleše Brichty (61): Dušení, zlomenina a spousta krve! - Metalový zpěvák Aleš Brichta (61) zažil pořádně smolné chvíle a skončil dokon... - blesk.cz


 

Aleš Brichta

Fanúšikov: 1



A B C Č D E F G H CH I J K L Ľ M N O P Q R S Š T U V W X Y Z Ž



ako:
Aleš Brichta - Jednou to pochopíš
Aleš Brichta - Jednou to pochopíš

tlač

edituj
Rok vzniku: 2006
Pesničku videlo 8905 návštevníkov.

Kvalita tabov : bez hodnotenia
Hodnotilo ľudí: 0 ohodnoť aj ty
  *** Autor textu: Aleš Brichta *** Autor hudby: Petr Buneš

*********************************************************************
*ALEŠ BRICHTA – JEDNOU TO POCHOPÍŠ***(z alba:ANDĚL POSLEDMÍHO SOUDU)*
*********************************************************************
** Hudba: Petr Buneš ******
** Text: Aleš Brichta ****

Vytvoření: 31.1.2004
Email: martinpavlicek@volny.cz

Tune to D (D,G,C,F,A,D)


Riff 1 (x3) Acoustic
E(-------------------------------------------------)
B(-------1-----------1-----------1-----------1-----)
G(-----2---2-------2---2-------0---0-------0---0---)
D(---2-------2---2-------2---2-------2---2-------2-)
A(-0-----------0-----------3-----------3-----------)
E(-------------------------------------------------)

E(-------------------------------------------------)
B(-------0-----------0-----------------------------)
G(-----0---0-------0---0---------2-----------2-----)
D(---0-------0---0-------0-----0---0-------0---0---)
A(-2-----------2-------------0-------0---0-------0-)
E(-------------------------2-----------2-----------)

Riff 2 (Gtr.1) (x2) Dist.
E(-----------------)
B(-----------------)
G(-----5-------7---)
D(-7---5---5---7---)
A(-7---3---5---5---)
E(-5-------3-------)

(Gtr.2) (x2)Acoustic
Ami, C, G, D

(Gtr.3,4)
E(-------------------------------------------------)
B(-13-12-13-12-13-12-13-12-13-12-13-12-13-12-13-12-)
G(-------------------------------------------------)
D(-10--9-10--9-10--9-10--9-10--9-10--9-10--9-10--9-)
A(-------------------------------------------------)
E(-------------------------------------------------)

E(----------------------------------------------------)
B(-12-10-12-10-12-10-12-10-12-10-12-10-12-10-12-10~12-)
G(----------------------------------------------------)
D(--9--7--9--7--9--7--9--7--9--7--9--7--9--7--9--7~-9-)
A(----------------------------------------------------)
E(----------------------------------------------------)

Chorus (Gtr.1) (x4) Dist.
E(-----------------)
B(-----------------)
G(-----5-------7---)
D(-2---5---5---7---)
A(-2---3---5---5---)
E(-0-------3-------)

(Gtr.2) (x4) Acoustic
Emi, C, G, D

Solo 1 (Gtr.1)
E(----------------10(12)~-10(12)-10--------)
B(-8(10)~-10-8-10-------------------13-10~-)
G(-----------------------------------------)
D(-----------------------------------------)
A(-----------------------------------------)
E(-----------------------------------------)

(Gtr.2) Acoustic
E(-------------------------------------------------)
B(-------1-----------1-----------1-----------1-----)
G(-----2---2-------2---2-------2---2-------2---2---)
D(---2-------2---2-------2---2-------2---2-------2-)
A(-0-----------0-----------0-----------0-----------)
E(-------------------------------------------------)

Riff 1 (x2)

Riff 2 (x2)

Chorus (x4)

Solo 2 (x2)
E(----------10~------------------------10~----------------)
B(-12-10-12----10-12-13~10-8~-12-10-12----12-10-8~7-8-10~-)
G(--------------------------------------------------------)
D(--------------------------------------------------------)
A(--------------------------------------------------------)
E(--------------------------------------------------------)

Rhythm Guitar during Solo 2 (x2) (Gtr.1)
E(--------------------------------------------------------)
B(--------------------------------------------------------)
G(----------7--------5-----------------7--------5-----7---)
D(-5--------7--------5-----2---5-------7--------5-----7---)
A(-5--------5--------3-----2---5-------5--------3-----5---)
E(-3-----------------------0---3--------------------------)

(Gtr.2) (x2)
G, D, C, Emi, G, D, C, D

Chorus (xX) (Gtr.1,2)
(Gtr.3)
E(---------------------------------------------------------)
B(--------------------15-----------------------------------)
G(-12~~~~~~12~~~~~~12----14~~12~~~~~~12~~~~~~12-11-9-------)
D(---------------------------------------------------12~~~~)
A(---------------------------------------------------------)
E(---------------------------------------------------------)

End.

=======================
=TABLATURE EXPLANATION=
=======================

A.H. = Artificial harmonic

<<<< = Volume swell effect

>>>> = Volume decrease effect

pm..| = Palm mute

h = hammer on

p = pull off

/ = slide up

\ = slide down

~ = Vibrato

b() = Bend

x\ = Pick slide

--------
--------
---12--- = Tremolo pick
----/---
----/---
----/---

---.---
--12--- = Staccato
-------
-------
-------



 
»
Tvoje obľúbené položky
Tvoje obľúbené položky
»
Najnovšie videá
Najnovšie videá

»
Tvoje obľúbené piesne
Tvoje obľúbené piesne
»
Najnavštevovanejšie piesne
Najnavštevovanejšie piesne
Dívka s perlami ve vlasech - akordy a text

Slečna závist - akordy a text

Nechte vlajky vlát - akordy a text

Barák na vodstřel - akordy a text

Nemám - akordy a text

Bílá paní - akordy a text

Jsem prý blázen jen - akordy a text

Barák na vodstřel - intro - taby

Pláč spálí smích - akordy a text

Dívka s perlami ve vlasech-správně - taby

Výlet do bájí - akordy a text

Andílek - akordy a text

V uniformě lokaje - akordy a text

American Bull - akordy a text

C'est la vie - akordy a text

Tulák po hvězdách - akordy a text

Pravda ve víně - akordy a text

Perníkový requiem - text

Bláznivej Kiki - akordy a text

Johanka z parku - text

viac

»
Nové albumy interpreta
Nové albumy interpreta



home | interpreti | register piesní | cd & dvd shop | pripomienky/nápady | kontakt | ochrana údajov | inzercia