Eric Clapton


piesne (157)

  texty (99)
  akordy (70)
  taby (40)
  preklady (13)


články (158)
Fotky (6)
diskusia
videá
diskografia
v obchode
odkazy
koncerty
sťahuj



pridaj vlastný článok

Eric Clapton:
RECENZE: Eric Clapton vydal akustické lockdownové album - Deska The Lady In The Balcony s podtitulem Lockdown Sessions je výsledkem loňského lo... - novinky.cz


Jeff Beck:
Zakk Wylde je zpět u Ozzyho Osbourna. Kytarové party natáčí na celou novou
desku Prince temnot
- O tom, že Ozzy Osbourne zlanařil na svou připravovanou sólovku kytarovou elitu, jsme ... - musicserver.cz


Jeff Beck:
Ozzy Osbourne chystá nové album, pracuje na něm s hvězdnými kytaristy
Beckem, Claptonem a dalšími
- Ozzy Osbourne aktuálně nahrává své nové sólové album a jak se nechal slyšet, pod... - IREPORT


Eric Clapton:
Eric Clapton má nový videoklip s Vanem Morrisonem - Eric Clapton a Van Morrison se spojili, aby vydali nový klip a novou verzi Claptonova ... - novinky.cz


Eric Clapton:
Eric Clapton připravil akustické album 'Lady In The Balcony: Lockdown
Sessions'
- Akustický živák "MTV Unplugged" se stal jednou z komerčně nejúspěšnějších dese... - musicserver.cz


Eric Clapton:
VIDEO: Frustrovaný Eric Clapton v singlu 'It Has Gotta Stop' křičí:
'Tohle musí skončit!'
- Eric Clapton na sebe nedávno upozornil prohlášením, že odmítá koncertovat na míst... - musicserver.cz


Joe Bonamassa:
Legendární setkání - Joe Bonamassa, Tommy Emmanuel, Josh Smith - Blues Alive
at sea
- To, že třeba za G3 stojí Joe Satriani, to, že kupříkladu za Crossroads Guitar Festi...


Chicago:
Legendární setkání - Sweet Home Chicago - Psal se rok 2007 a v Toyota Parku v Bridgeview v Illinois se uskutečnil již druhý roč...


Jeff Beck:
Legendární setkání - Eric Clapton + Jeff Beck + Jimmy Page - Dnešním číslem pokračujeme v sérii Legendární setkání, ve které se soustředí...


Jeff Beck:
Eric Clapton, Jeff Beck, Sheryl Crow či Buddy Guy na Crossroads - Crossroads Guitar Festival je projekt Erika Claptona, který zve pravidelně své slavné... - novinky.cz


 

Eric Clapton

Fanúšikov: 2



A B C Č D E F G H CH I J K L Ľ M N O P Q R S Š T U V W X Y Z Ž



ako:
Eric Clapton - Signe (lepsia Verzia)
Eric Clapton - Signe (lepsia Verzia)

tlač

edituj
Pesničku videlo 3400 návštevníkov.

Kvalita tabov :
Hodnotilo ľudí: 2 ohodnoť aj ty
  *** Autor textu: E. Clapton *** Autor hudby: E. Clapton

Eric Clapton - Signe (Unplugged)

Intro:
e|------------0--|-----0---------|-------0----0--|-----0---------|
G|----2----0-----|--2--------0---|----2----0-----|--2--------0---|
H|----2----1-----|--2--------1---|----2----1-----|--2--------1---|
D|----2----2-----|-----------2---|----2----2-----|-----------2---|
A|--0----0-------|--0-----0------|--0------------|--0-----0------|
E|---------------|---------------|---------------|---------------|

e|-------0----0--|-----0---------|-------0----0--|-------|-------------|
H|----2----0-----|--2--------0---|----2----0-----|---2---|----------0--|
G|----2----1-----|--2--------1---|----2----1-----|---2---|-----1h2-----|
D|----2----2-----|-----------2---|----2----2-----|-------|-------------|
A|--0------------|--0-----0------|--0------------|---0---|-------------|
E|---------------|---------------|---------------|-------|--0----------|

First time play (3), second time (2)
e|-----0-------0--|-----4-------------|----(2)---------|-----0------------|--|
H|--2--------2----|--5----------------|--3-(3)----3p2--|--0--------3p2-0--| |
G|--2--------2----|--4--------3-h-4---|--4--------4----|--1---------------| |
D|----------------|-------------------|----------------|------------------| |
A|--0-----0-------|--4----------------|--2-----2-------|------------------| |
E|----------------|--------2----------|----------------|--0-----0---------| |
|
|
e|-----0----------|-----2-------------|-----2----------|-----0------------| |
H|--2--------2p0--|----------------2--|--3--------3p2--|--0--------0------| |
G|--2--------2----|--3--------3h4-----|--4--------4----|--1----------2p1--| |
D|----------------|--4----------------|----------------|------------------| |
A|--0-----0-------|-------------------|--2-----2-------|------------------| |
E|----------------|--2-----2----------|----------------|--0-----0---------| |
| x2
|
e|-----0--------0--|-----0--------0--|-----0--------0--|-----0------------| |
H|--2--------2-----|--3--------3-----|--3--------3-----|--3--------0------| |
G|--2--------2-----|--2--------2-----|--2--------2-----|--1----------2p1--| |
D|-----------------|-----------------|-----------------|------------------| |
A|--0-----0--------|-----------------|-----------------|------------------| |
E|-----------------|--2-----2--------|--0-----0--------|--0-----0---------| |
|
|
e|-----0--------0--|-----0--------0--|-----0--------0--|-----0------------| |
H|--2--------2-----|--3--------3-----|--3--------3-----|--3------------0--| |
G|--2--------2-----|--2--------2-----|--2--------2-----|--1--------1h2----| |
D|-----------------|-----------------|-----------------|------------------| |
A|--0-----0--------|-----------------|-----------------|------------------| |
E|-----------------|--2-----2--------|--0-----0--------|--0-----0---------|--|


e|--------------|--------------2--|-----2----------|-----0------------|
H|-----5--5--5--|--2--------2-----|--3--------3p2--|--0------------0--|
G|-----4--4--4--|--2--------2-----|--4--------4----|--1--------1h2----|
D|--------------|-----------------|----------------|------------------|
A|--4-----4--4--|-----------------|--2-----2-------|------------------|
E|--------------|--2--2--2--------|----------------|--0-----0---------|

e|--------------|-----------------|-----2----------|-----0------------|
H|-----5--5--5--|--2--------2--2--|--3--------3p2--|--0------------0--|
G|-----4--4--4--|--2--------2-----|--4--------4----|--1--------1h2----|
D|--------------|-----------------|----------------|------------------|
A|--4-----4--4--|-----------------|--2-----2-------|------------------|
E|--------------|--2--2--2--------|----------------|--0-----0---------|

e|--------------|--------------2--|-----2----------|-----0------------|
H|-----5--5--5--|--2--------2-----|--3--------3p2--|--0--------0------|
G|-----4--4--4--|--2--------2-----|--4--------4----|--1----------2p1--|
D|--------------|-----------------|----------------|------------------|
A|-----4--4--4--|-----------------|--2-----2-------|------------------|
E|--------------|--2--------------|----------------|--0-----0---------|

e|-----0--------0--|-----0--------0--|-----0--------0--|-----0------------|
H|--2--------2-----|--3--------3-----|--3--------3-----|--3--------0------|
G|--2--------2-----|--2--------2-----|--2--------2-----|--1----------2p1--|
D|-----------------|-----------------|-----------------|------------------|
A|--0-----0--------|-----------------|-----------------|------------------|
E|-----------------|--2-----2--------|--0-----0--------|--0-----0---------|

e|-----0--------0--|-----0--------0--|-----0--------0--|-----0------------|
H|--2--------2-----|--3--------3-----|--3--------3-----|--3------------0--|
G|--2--------2-----|--2--------2-----|--2--------2-----|--1--------1h2----|
D|-----------------|-----------------|-----------------|------------------|
A|--0-----0--------|-----------------|-----------------|------------------|
E|-----------------|--2-----2--------|--0-----0--------|--0-----0---------|

e|-----0-----0-----4-----2--|-----3----------|-----0------------|
H|--2-----3-----5-----2-----|--3--------3p2--|--0--------0------|
G|--2-----2-----4-----2-----|--4--------4----|--1----------2p1--|
D|--------------------------|----------------|------------------|
A|--0-----------4-----------|--2-----2-------|------------------|
E|--------2-----------2-----|----------------|--0-----0---------|

e|-----0----------|-----2-------------|-----2----------|-----0----------------------|
H|--2--------2p0--|----------------2--|--3--------3p2--|--0-------2h3p2h3p2h3p2h3p2-|
G|--2--------2----|--3--------3h4-----|--4--------4----|--1-------------------------|
D|----------------|--4----------------|----------------|----------------------------|
A|--0-----0-------|-------------------|--2-----2-------|----------------------------|
E|----------------|--2-----2----------|----------------|--0-----0-------------------|

e|-----0--------0--|-----0--------0--|-----0--------0--|-----0------------|
H|--2--------2-----|--3--------3-----|--3--------3-----|--3--------0------|
G|--2--------2-----|--2--------2-----|--2--------2-----|--1----------2p1--|
D|-----------------|-----------------|-----------------|------------------| X5
A|--0-----0--------|-----------------|-----------------|------------------|
E|-----------------|--2-----2--------|--0-----0--------|--0-----0---------|

e|-----0--------0--|-----0--------0--|-----0--------0--|-----0------------|--5--|
H|--2--------2-----|--3--------3-----|--3--------3-----|--3--------0------|--2--|
G|--2--------2-----|--2--------2-----|--2--------2-----|--1----------2-1--|--2--|
D|-----------------|-----------------|-----------------|------------------|--2--|
A|--0-----0--------|-----------------|-----------------|------------------|--0--|
E|-----------------|--2-----2--------|--0-----0--------|--0-----0---------|-

 
»
Tvoje obľúbené položky
Tvoje obľúbené položky
»
Najnovšie videá
Najnovšie videá

»
Tvoje obľúbené piesne
Tvoje obľúbené piesne
»
Najnavštevovanejšie piesne
Najnavštevovanejšie piesne
Tears in Heaven - akordy a text

Tears In Heaven - akordy a text

Tears In Heaven Jednoduchy - akordy a text

Layla - preklad

River Of Tears - preklad

I Shot The Sheriff - akordy a text

Tears In Heaven - akordy

Tears In Heaven (original) - text

Tears In Heaven - taby

Wonderful Tonight - akordy a text

Wonderful Tonight - Noty

Tears In Heaven - preklad

Tears In Heaven - Intro - taby

Wonderful Tonight - preklad

Old Love (Dávna láska) - preklad

Lay Down Sally - akordy a text

Bell Bottom Blues - akordy a text

Someone Like You - akordy a text

Promises - akordy a text

Alberta - akordy

viac

»
Nové albumy interpreta
Nové albumy interpreta



home | interpreti | register piesní | cd & dvd shop | pripomienky/nápady | kontakt | ochrana údajov | inzercia