Tomáš Klus


piesne (254)

  texty (180)
  akordy (163)
  taby (27)
  preklady (0)


články (503)
Fotky (42)
diskusia
videá
diskografia
v obchode
odkazy
koncerty
sťahuj



pridaj vlastný článok

Tomáš Klus:
VIDEOROZHOVOR | „Když byl Tomáš Klus malý jako jeho Alfréd, já už jsem
brala ceny,“ vtipkovala Anna K.
- Anna K. a Tomáš Klus si z předávání dvou ročníků Hudebních cen Žebřík odnes... - IREPORT


Anna K.:
Žebřík vyhlašoval dva ročníky ankety, ceny převzali Monkey Business,
Tomáš Klus, Anna K., Mňága a Žďorp Marek Ztracený, Vojtěch Dyk, Tata
Bojs i Miro Žbirka
- Rekordní počet 55 cen se vyhlašoval v pátek 3. září v plzeňském areálu DEPO20... - IREPORT


Tomáš Klus:
NAžIVO: Tomáš Klus svými mantrami, vlídnými slovy a pohotovým humorem
udělal tečku za letošními prázdninami
- Rozloučení s prázdninami obstaral v branických Ledárnách populární zpěvák, kter... - musicserver.cz


Anne-Marie:
Nová alba: David Crosby, Tomáš Klus či Anne-Marie - Hudební veterán David Crosby poslal do světa příjemně rockové sólové novinky. An... - novinky.cz


Tomáš Klus:
Tomáš Klus chcel potešiť fanúšikov. Najnovšie digitálne albumy vydáva
na CD
- Pre veľký záujem fanúšikov vydal Tomáš Klus v limitovanej edícii na CD svoje dva... - zoznam.sk


Tomáš Klus:
Už túto sobotu odohrá Tomáš Klus koncert v Trnave - Pesničkár, spevák, herec a bývalý športovec Tomáš Klus sa netají pozitívnym vz...


Tomáš Klus:
Tomáš Klus po vyše roku vystúpi konečne aj na Slovensku - Obľúbený spevák, ktorého aj slovenskí fanúšikovia oceňujú pre jeho úprimnosť,...


Tomáš Klus:
Tomáš Klus vydává své nejnovější digitální alba v limitované edici na
CD
- Tomáš Klus vydá pro velký zájem fanoušků v limitované edici na CD svá dvě posl... - evropa2.cz


Tomáš Klus:
Najväčšia BOLESŤ českého speváka: Sestru (†1) zabila RAKOVINA,
tragická SMRŤ otca v Tatrách!
- PRAHA - Bolestivé spomienky! Tomáš Klus (35) je nielen talentovaným spevákom a hudob... - topky.sk


Tomáš Klus:
NAžIVO: Tomáš Klus je prostě showman - na lodi předvedl vydařený stand-up - Série koncertů na lodi se přehoupla do druhého týdne. Úterý patřilo oblíbenému ... - musicserver.cz


 

Tomáš Klus

Fanúšikov: 18



A B C Č D E F G H CH I J K L Ľ M N O P Q R S Š T U V W X Y Z Ž



ako:
Tomáš Klus - Neklid
Tomáš Klus - Neklid

tlač

edituj
Poznámka: - fixed

Pesničku videlo 10005 návštevníkov.

Kvalita tabov :
Hodnotilo ľudí: 1 ohodnoť aj ty
Sloka se hraje kombinací těchto dvou tabulátrů.

E|--------------------------------------------------------------|
H|--------------------------------------------------------------|
G|-----5----------------------------------2---------0-----------|
D|--------5--------5------------------------2-0-2-0---3---------|
A|--3-------3s5--7---7---7--------2h0--0-------------------3h5--|
E|---------------------0---0---3h4----------------------1h3-----|

E|-------------------------------------------3--0---------------|
H|-------------------------------0--1-------1-------------------|
G|-----2-------------1--2-----2---------------------------------|
D|-------0--2-----2---------------------------------------------|
A|--3----------2-----------0-----------3------------------------|
E|--------------------------------------------------------------|

před refrénem je malá změna v koncovce 2. tabulátoru:

E|-------------------------------------------3--3---------------|
H|----------------------------------------1--------1--0---------|
G|-----2-------------1--2--------0--1--------------------2--0---|
D|-------0--2-----2-----------2---------------------------------|
A|--3----------2-----------0-----------3------------------------|
E|--------------------------------------------------------------|

enjoy

 
»
Tvoje obľúbené položky
Tvoje obľúbené položky
»
Najnovšie videá
Najnovšie videá

»
Tvoje obľúbené piesne
Tvoje obľúbené piesne
»
Najnavštevovanejšie piesne
Najnavštevovanejšie piesne
Pocity - akordy a text

Pánu Bohu do oken - akordy a text

A pak - akordy

Chybíš mi - akordy a text

Nina - akordy a text

Marie - akordy

..Až.. - akordy a text

Dopis - akordy a text

Sibyla - akordy a text

DA.Muklův meč - akordy a text

VeSmíru - akordy a text

Dobré ráno (Správně) - akordy a text

Pocity - akordy

Jde voZem - akordy

Cesta - akordy a text

Do nebe - akordy a text

Nezapomínej - akordy a text

Čas - akordy a text

Pánubohu do oken - akordy a text

17B - akordy a text

viac

»
Nové albumy interpreta
Nové albumy interpreta



home | interpreti | register piesní | cd & dvd shop | pripomienky/nápady | kontakt | ochrana údajov | inzercia