Xavier Baumaxa

piesne (125)

  texty () / preklady ()
  akordy () / taby ()
  noty () / slideshow ()

články (39)
fotogaléria
diskusia
videá
diskografia
v obchode
odkazy
koncerty
sťahuj



 

Xavier Baumaxa

Fanúšikov: 3



A B C Č D E F G H CH I J K L Ľ M N O P Q R S Š T U V W X Y Z Ž



ako:
Xavier Baumaxa - Modré Tanky Nejsou Funky
Xavier Baumaxa - Modré Tanky Nejsou Funky

tlač

edituj
Pesničku videlo 4005 návštevníkov.

Kvalita tabov : bez hodnotenia
Hodnotilo ľudí: 0 ohodnoť aj ty
  *** Autor textu: Xavier Baumaxa *** Autor hudby: Xavier Baumaxa
-------------------------------------------------------------
-------------------------------------------------------------
-------------------------------------------------------------
------7-----7--------2-----------0h2------3------3-----------
--------------7\-----------0h2-------------------------------
--5-----5---------0----00--------------1-----0h1-------------


-----------------------------|-------------------------------
-----------------------------|-------------------------------
-------5---------------------|-----------7p6---------------12
------------------5----------|-------7-------7---------2---12
-2/3-----3------------4h5----|------------------7\---------12
-----------0---3-------------|----5-----------------0--------


----------------------------------------------|---------------
----------------------------------------------|---------------
-------------------------5--------------------|---------------
------3-------3----------------------5--------|---------------
-------------------2/3------3-----------4h5---|---------------
---1-----0h1-------------------0--3-----------|---------------


pak se přechází do akordů kde se střídá jen Am s F a zakončuje se G, A, podruhý je to jednou Am F pak C G a Am F G Am



stačí naposlouchat rytmus, tóny jsou zde a troufám si tvrdit že i vcelku správně


 
»
Tvoje obľúbené položky
Tvoje obľúbené položky
»
Najnovšie videá
Najnovšie videá

»
Tvoje obľúbené piesne
Tvoje obľúbené piesne
»
Najnavštevovanejšie piesne
Najnavštevovanejšie piesne
Pažitka - akordy a text

Dátamtůja - akordy a text

Nazijazz - akordy a text

Pažitka - Správně - akordy

Vegetarián - akordy

Lidé Z Malých Vesniček - akordy a text

Mámámamá - akordy

Špulka A Já - akordy a text

Otvírákem - akordy a text

Ozajstný Hip-hop - text

Pan Farář - akordy a text

Romale Rap - akordy a text

Ing. Pavel Pavel - akordy a text

Babí Léto - akordy

Lidé Z Malých Vesniček - Tab - taby

Kafkova Praha - akordy a text

Rosička - akordy a text

Retrofutro Discoteque - akordy a text

Last Free Place - akordy a text

Snížek - akordy a text

viac

»
Nové albumy interpreta
Nové albumy interpreta



home | interpreti | register piesní | cd & dvd shop | pripomienky/nápady | kontakt | ochrana údajov | inzercia