Peha


piesne (109)

  texty (96)
  akordy (48)
  taby (5)
  preklady (2)


články (342)
Fotky (47)
diskusia
videá
diskografia
v obchode
odkazy
koncerty
sťahuj



pridaj vlastný článok

Peha:
RECENZE: Projekt Story spojil na albu 'Potlesk v stoji' slovenskou muzikantskou
špičku. Lipa, Hammel, Kňažko a další jsou zaslouženým razítkem kvality
- Ve slovenském rocku a popu se vytvořila chvályhodná tendence postavit dopředu písň... - musicserver.cz


Ali Ibn Rachid:
Top 10 najzásadnejších albumov prešovskej hudobnej scény - Pozrite si unikátny rebríček. IMT Smile - Valec IMT Smile - ValecNad týmto rebrí... - frenky.sk


Katarína Knechtová:
Šokující přiznání Katky Knechtové: Byla jsem jen ubitým majetkem kapely - PředchozíDalší 16. února 2020 ? 11:00Sdílej: Zpěvačka Katarína Knechtová (38)... - blesk.cz


Katarína Knechtová:
Skupina PEHA má novú speváčku Knechtovú nahradí TÁTO tohtoročná
Superstaristka!
- slovakwoman.sk


Peha:
Peha se vrací se zpěvačkou Karmen Pál-Baláž - musicserver.cz


Katarína Knechtová:
Podívejte se, jak se od dob Pehy proměnila zpěvačka Katarína Knechtová - super.cz


Katarína Knechtová:
Katka Knechtová v Bratislave obnažila svoju hudobnú dušu - zoznam.sk


Tomáš Bezdeda:
Jadranka či Kazík. Slávik končí, pozrite sa, kto u Slovákov bodoval pred
rokmi
- sme.sk


Peha:
Peha naďalej hľadá novú speváčku


Katarína Knechtová:
Katka Knechtová vyráža na turné - Eva Bacigalová


 

Peha

Fanúšikov: 3



A B C Č D E F G H CH I J K L Ľ M N O P Q R S Š T U V W X Y Z Ž



ako:
Peha - Naoko spím
Peha - Naoko spím

tlač

edituj
Poznámka: zdroj: pehaweb.sk

Pesničku videlo 6617 návštevníkov.

Kvalita tabov : bez hodnotenia
Hodnotilo ľudí: 0 ohodnoť aj ty
  *** Autor textu: V.Krausz *** Autor hudby: K.Knechtová

Vyhrávka sloha gitara

E||--------------------|--------------------|---------------------|
B||--------------------|--------------------|---------------------|
G||--------------------|--------------------|---------------------|
D||--4------5----------|--4------2----------|--4------2------0----|
A||--------------------|--------------------|---------------------|
E||--------------------|--------------------|---------------------|



---------------------|--------------------|--------------------|
---------------------|--------------------|--------------------|
---------------------|--------------------|--------------------|
---------------0--2--|--4------5----------|--4------2----------|
--2------------------|--------------------|--------------------|
---------------------|--------------------|--------------------|



---------------------|-------------------|--------------------|
---------------------|-------------------|--------------------|
---------------------|-------------------|--------------------|
--4------2------0----|--4----------------|--4------5----------|
---------------------|-------------------|--------------------|
---------------------|-------------------|--------------------|



--------------------|---------------------|----------------------|
--------------------|---------------------|----------------------|
--------------------|---------------------|----------------------|
--4------2----------|--4------2------0----|----------------0--2--|
--------------------|---------------------|--2----------2--------|
--------------------|---------------------|----------------------|



--------------------|--------------------|---------------------|
--------------------|--------------------|---------------------|
--------------------|--------------------|---------------------|
--4------5----------|--4------2----------|--4------2------0----|
--------------------|--------------------|---------------------|
--------------------|--------------------|---------------------|

Refrén
G
-------------------||---15---15-15--15----15--15-15-15-15-|
-------------------||---15---15-15--15----15--15-15-15-15-|
-------------------||*--12---12-12--12----12--12-12-12-12-|
--4----------------||*--0----0--0---0-----0---0--0--0--0--|
-------------------||-------------------------------------|
-------------------||-------------------------------------|


Dsus2/fis Cadd9
--14---14-14--14----14--14-14-14-14-|--8---8-8--8----8--8-8-8-8-|
--15---15-15--15----15--15-15-15-15-|--8---8-8--8----8--8-8-8-8-|
--11---11-11--11----11--11-11-11-11-|--5---5-5--5----5--5-5-5-5-|
--0----0--0---0-----0---0--0--0--0--|--5---5-5--5----5--5-5-5-5-|
------------------------------------|---------------------------|
------------------------------------|---------------------------|


D Sólo gitara
--10---10-10--10----10--10-10-10-10--||------------------------------|
--10---10-10--10----10--10-10-10-10--||------------------------------|
--7----7--7---7-----7---7--7--7--7--*||--12--14----12--14----11--12--|
--7----7--7---7-----7---7--7--7--7--*||------------------------------|
-------------------------------------||------------------------------|
-------------------------------------||------------------------------|



------------------------|-------------------------|-------------------------|
------------------------|-------------------------|-------------------------|
----7--9----------7-----|----12--14----7--9-------|-------7-----7-----7--9--|
------------7--9-----9--|----------------------7--|----9-----9-----9--------|
------------------------|-------------------------|-------------------------|
------------------------|-------------------------|-------------------------|



---------------------------|-----------------------|-------------------------|
---------------------------|-----------------------|-------------------------|
----12--14----11--12----7--|--9--------------7-----|-----7-------9-------11--|
---------------------------|---------7----9-----9--|--9-------9-------9------|
---------------------------|-----------------------|-------------------------|
---------------------------|-----------------------|-------------------------|



----------------------------|------------------||
----------------------------|------------------||
------12----12--11----------|------------------||
--------------------12--14--|------------------||
----------------------------|------------------||
----------------------------|------------------||


 
»
Tvoje obľúbené položky
Tvoje obľúbené položky
»
Najnovšie videá
Najnovšie videá

»
Tvoje obľúbené piesne
Tvoje obľúbené piesne
»
Najnavštevovanejšie piesne
Najnavštevovanejšie piesne
Spomaľ - akordy a text

Za Tebou - akordy a text

Spomaľ - akordy a text

Náš svet je pestrý - akordy a text

Slnečná balada - akordy a text

Deň medzi Nedeľou a Pondelkom - akordy a text

Za tebou - text

Dážď - akordy a text

Vodopád - akordy a text

V hlbinách - akordy a text

V zaseknutom výťahu 2 - text

Za tebou 2 - text

Diabol - anjel - akordy a text

Krajinou - akordy a text

Balada od Pehy - text

Spomaľ - melodia

Diaľkové ovládanie - akordy a text

Hypnotická - akordy a text

Za tebou - taby

Hlava vinná telo nevinné 2 - text

viac

»
Nové albumy interpreta
Nové albumy interpreta



home | interpreti | register piesní | cd & dvd shop | pripomienky/nápady | kontakt | ochrana údajov | inzercia