Maroon 5


piesne (254)

  texty (138)
  akordy (18)
  taby (13)
  preklady (94)


články (172)
Fotky (44)
diskusia
videá
diskografia
v obchode
odkazy
koncerty
sťahuj



pridaj vlastný článok

Afi:
Nová alba: Maroon 5, AFI, Garbage i Sleater-Kinney - Čtyři americké kapely přišly se svými novými alby. Maroon 5, AFI, Garbage i Sleat... - novinky.cz


Afi:
Nové desky 23/2021 - od Maroon 5 přes AFI po Garbage - Vedle spousty vinylů, které přinesl Record Store Day, budou obchody s hudbou napěchov... - musicserver.cz


Maroon 5:
Maroon 5 vzdávajú novým albumom poctu manažérovi skupiny, ktorý zomrel v
roku 2017
- Spolu s albumom predstavili aj novinku s názvom Lost... - expres.sk


Grammy:
Maroon 5 oznamujú nový album Jordi. Vyjde už 11. júna - Americká pop-rocková kapela Maroon 5 pochádzajúca z Los Angeles, ktorá má na svojom... - zoznam.sk


Maroon 5:
Americká kapela Maroon 5 oznamuje príchod nového albumu - Maroon 5 je americká pop-rocková kapela pochádzajú z Los Angeles, ktorá má na svoj...


Jordan:
Maroon 5 věnují nové album zesnulému manažerovi Jordanovi - Americká formace Maroon 5 slibuje novou studiovku již vcelku dlouho. Není se čemu div... - musicserver.cz


Maroon 5:
AUDIO: Maroon 5 a Megan Thee Stalion zpívají o krásných chybách ve vztahu i
po něm
- Maroon 5 nejsou ve světě popmusic žádná béčka - do světa pouštějí jednu pecku ... - musicserver.cz


Maroon 5:
Novinka EVROPA 2 MUSIC CHART: MAROON 5 – Nobody’s Love - Představujeme novinku č. 1 v hitparádě! The post Novinka EVROPA 2 MUSIC CHART: MAROO... - evropa2.cz


Maroon 5:
Nový ADAM LEVINE! V klipu MAROON 5 si holohlavý balí jointa - Máte rádi skupinu Maroon 5 a žerete jejího frontmana, zpěváka Adama Levina? Pak vá... - evropa2.cz


Maroon 5:
Člen Maroon 5 obviněn z domácího násilí: Za mlácení přítelkyně mu
hrozí 6 let!
- Fanoušci americké pop-rockové skupiny Maroon 5 jsou v šoku. Jeden ze zakládající...


 

Maroon 5

Fanúšikov: 2



A B C Č D E F G H CH I J K L Ľ M N O P Q R S Š T U V W X Y Z Ž



ako:
Maroon 5 - This Love
Maroon 5 - This Love

tlač

edituj
Pesničku videlo 5658 návštevníkov.

Kvalita tabov :
Hodnotilo ľudí: 2 ohodnoť aj ty

[G/B]I was so high, I did not [Cm]recognize the fire burning[Fm7/C] in her eyes


e|---7---------------------------8------------------------11-----------------|
B|---8---------------------------8------------------------9------------------|
G|---7---------------------------8------------------------8------------------|
D|---9---------------------------10-----------------------10-----------------|
A|---------------------------------------------------------------------------|
E|---------------------------------------------------------------------------|

The chaos that controlled my [G/B]mind.

e|--------------------------7------------------------------------------------|
B|--------------------------8------------------------------------------------|
G|--------------------------7------------------------------------------------|
D|--------------------------9------------------------------------------------|
A|---------------------------------------------------------------------------|
E|---------------------------------------------------------------------------|

Refren:
[Cm7]This [Fm7]love has [Bb]taken its

e|--8--8-----x--8----x--x---8-------8-----x--x---6---6----x----6-------------|
B|--8--8-----x--8----x--x---9-------9-----x--x---6---6----x----6-------------|
G|--8--8-----x--8----x--x---8-------8-----x--x---7---7----x----7-------------|
D|--10-10----x--10---x--x---10------8h10--x--x---8---8----x----8-------------|
A|---------------------------------------------------------------------------|
E|---------------------------------------------------------------------------|

Toll [Eb6]on me.

e|--x---x---x---x---8------x---8---x---x-------------------------------------|
B|--x---x---x---x---8------x---8---x---x-------------------------------------|
G|--x---x---x---x---8------x---8---x---x-------------------------------------|
D|--x---x---x---x---8------x---8---x---x-------------------------------------|
A|---------------------------------------------------------------------------|
E|---------------------------------------------------------------------------|

[Cm]I have no [F]choice 'cause

e|---8---8---x---8---x---x---------------------------------------------------|
B|---8---8---x---8---x---x---10---x---x---10--10--10--10---------------------|
G|---8---8---x---8---x---x---10---x---x---10--10--10--10---------------------|
D|---10--10--x---10--x---x---10---x---x---10--10--10--10---------------------|
A|---------------------------8----x---x---8---8---8---8----------------------|
E|---------------------------------------------------------------------------|

I won't say "Good-bye" any-more.

e|---8---8---8---8----x---x---x---x---7------x---7---x---x-------------------|
B|---9---9---9---9----x---x---x---x---8------x---8---x---x-------------------|
G|---8---8---8---8----x---x---x---x---7------x---7---x---x-------------------|
D|---10--10--10--10---x---x---x---x---9------x---9---x---x-------------------|
A|---------------------------------------------------------------------------|
E|---------------------------------------------------------------------------|

[Fm7]I'll fix these broken things,[Ebmaj7]repair your broken wings

e|---8-------------------------------6---------------------------------------|
B|---9-------------------------------8---------------------------------------|
G|---8-------------------------------7---------------------------------------|
D|---10------------------------------8---------------------------------------|
A|---8-------------------------------6---------------------------------------|
E|---------------------------------------------------------------------------|

[G/B]And make sure everything's [Cm]alright

e|---7----------------------------8------------------------------------------|
B|---8----------------------------8------------------------------------------|
G|---7----------------------------8------------------------------------------|
D|---9----------------------------10-----------------------------------------|
A|---------------------------------------------------------------------------|
E|---------------------------------------------------------------------------|

[Fm7]My pressure on your hips, [Ebmaj7]sinking my finger tips into

e|---8--------------------------6--------------------------------------------|
B|---9--------------------------8--------------------------------------------|
G|---8--------------------------7--------------------------------------------|
D|---10-------------------------8--------------------------------------------|
A|---8--------------------------6--------------------------------------------|
E|---------------------------------------------------------------------------|

[G7]Every inch of you because I know that's what you want me to do.


e|---3----------------------------3------------------------------------------|
B|---6----------------------------6------------------------------------------|
G|---4----------------------------4------------------------------------------|
D|---3----------------------------3------------------------------------------|
A|---5----------------------------5------------------------------------------|
E|---3----------------------------3------------------------------------------|


 
»
Tvoje obľúbené položky
Tvoje obľúbené položky
»
Najnovšie videá
Najnovšie videá

»
Tvoje obľúbené piesne
Tvoje obľúbené piesne
»
Najnavštevovanejšie piesne
Najnavštevovanejšie piesne
Memories - akordy a text

She Will Be Loved - akordy a text

Sugar - text

Shiver - preklad

Runaway - text

Stutter - preklad

Payphone - preklad

This Love - akordy a text

She Will Be Loved - preklad

Misery - preklad

One More Night - preklad

Harder To Breathe - akordy a text

Sad - preklad

Maps - preklad

Cold (feat. Future) - text

Every Breath You Take - text

Tangled - preklad

Secret - preklad

Shiver - Cz - preklad

She Will Be Loved/ Bude Milována - preklad

viac

»
Nové albumy interpreta
Nové albumy interpreta



home | interpreti | register piesní | cd & dvd shop | pripomienky/nápady | kontakt | ochrana údajov | inzercia