Karel Kryl


piesne (266)

  texty (222)
  akordy (194)
  taby (19)
  preklady (11)


články (92)
Fotky (11)
diskusia
videá
diskografia
v obchode
odkazy
koncerty
sťahuj



pridaj vlastný článok

Karel Kryl:
Karel Kryl do třetice: Po soše má v Ostravě desku i nároží - Pamětní desku věnovanou básníkovi a písničkáři Karlu Kr... - blesk.cz


Karel Kryl:
Básník a písničkář Karel Kryl má v Ostravě pamětní desku - Ostrava - Pamětní desku věnovanou básníkovi a písničkáři Karlu Krylovi dnes ... - ceskenoviny.cz


Thom Artway:
Thom Artway vzdáva hold Karlovi Krylovi - music-zone.eu


Karel Kryl:
‚Ustřihneme-li ptáku křídla, přestane létat.‘ Česká televize uvede
neznámý norský recitál Karla Kryla
- lidovky.cz


Karel Kryl:
Pasážová revolta od Karla Kryla dostala vďaka filmu amnestie novú podobu. - gregi.net


Karel Kryl:
Karel Kryl - Král protestsongů, který se stal symbolem odporu vůči režimu - ireport.cz


Karel Kryl:
Karel Kryl by se dnes dožil 75 let. Jeho písně zněly gymnáziem v
Krkonoších
- denik.cz


Karel Kryl:
Jiří Černý: Karel Kryl byl první velká osobnost sólového českého folku - aktualne.cz


Karel Kryl:
Karel Kryl byl písničkářem, který neznal kompromisy. Zemřel před 25 lety - lidovky.cz


Karel Kryl:
25 let od smrti Karla Kryla. Byl by dnes hlasem národa, nebo by ho Češi
ignorovali?
- aktualne.cz


 

Karel Kryl

Fanúšikov: 12



A B C Č D E F G H CH I J K L Ľ M N O P Q R S Š T U V W X Y Z Ž



ako:
Karel Kryl - Nevidomá dívka - originál
Karel Kryl - Nevidomá dívka - originál

tlač

edituj
Pesničku videlo 14411 návštevníkov.

Kvalita tabov : bez hodnotenia
Hodnotilo ľudí: 0 ohodnoť aj ty
  *** Autor textu: Karel Kryl *** Autor hudby: Karel Kryl

Karel Kryl
Nevidomá dívka

akordy: intro: 2x: |D|Emi|

sloka: 5x: |D|Emi| , |F#|Hmi|G|A|F#|F#|

refrén: |F#|Hmi|Emi|Hmi|A7|Emi|A|F#|F#|Emi|Emi|Hmi|Hmi|G|G|A|F#|D|Emi|F#|F#|

začátek se hraje 2x
D Emi
E|-------2------|-------0------|
H|-----3---3----|-----0---0----|
G|---2-------2--|---0-------0--|
D|-0------------|-2------------|
A|--------------|--------------|
E|--------------|--------------|

sloka
D Emi D Emi
E|-------2------|-------0------|-------2-----|-------0-----|
H|-----3---3----|-----0---0----|-----3---3---|-----0---0---|
G|---2-------2--|---0-------0--|---2-------2-|---0-------0-|
D|-0------------|-2------------|-0-----------|-2-----------|
A|--------------|--------------|-------------|-------------|
E|--------------|--------------|-------------|-------------|
V zahradě za cihlovou zídkou

D Emi D Emi
E|-------2------|-------0------|-------2-----|-------0-----|
H|-----3---3----|-----0---0----|-----3---3---|-----0---0---|
G|---2-------2--|---0-------0--|---2-------2-|---0-------0-|
D|-0------------|-2------------|-0-----------|-2-----------|
A|--------------|--------------|-------------|-------------|
E|--------------|--------------|-------------|-------------|
popsanou v slavných výročích

D Emi F# Hmi
E|-------2------|-------0------|-------2-----|-------2-----|
H|-----3---3----|-----0---0----|-----2---2---|-----3---3---|
G|---2-------2--|---0-------0--|---3-------3-|---4-------4-|
D|-0------------|-2------------|-4-----------|-4-----------|
A|--------------|--------------|-------------|-------------|
E|--------------|--------------|-------------|-------------|
sedává na podzim na trávě před besídkou

G A F# F#
E|-------3------|-------0------|-------2-----|-------2-----|
H|-----0---0----|-----2---2----|-----2---2---|-----2---2---|
G|---0-------0--|---2-------2--|---3-------3-|---3-------3-|
D|-0------------|-2------------|-4-----------|-4-----------|
A|--------------|--------------|-------------|-------------|
E|--------------|--------------|-------------|-------------|
děvčátko s páskou na o - čích


Celý text je v akordech.

 
»
Tvoje obľúbené položky
Tvoje obľúbené položky
»
Najnovšie videá
Najnovšie videá

»
Tvoje obľúbené piesne
Tvoje obľúbené piesne
»
Najnavštevovanejšie piesne
Najnavštevovanejšie piesne
Anděl (tak jak ho hrál Karel - 100% správně) - akordy a text

Karavana mraků - akordy a text

Morituri te salutant - akordy a text

Veličenstvo kat - akordy a text

Anděl - akordy a text

Bratříčku zavírej vrátka - akordy a text

Král a klaun - akordy a text

Lásko - akordy a text

Nevidomá dívka - akordy

Salome - akordy a text

Bratříčku zavírej vrátka - správně - akordy

Anděl - akordy a text

Karavana mraků - akordy

Veličenstvo kat - Pro začátečníky - akordy a text

Děkuji - akordy a text

Anděl - noty

Ukolébavka - akordy a text

Píseň neznámeho vojína - akordy a text

Salome - noty

Divný kníže - akordy a text

viac

»
Nové albumy interpreta
Nové albumy interpreta



home | interpreti | register piesní | cd & dvd shop | pripomienky/nápady | kontakt | ochrana údajov | inzercia