Aventura


piesne (31)

  texty (21)
  akordy (2)
  taby (1)
  preklady (8)


články (4)
Fotky (5)
diskusia
videá
diskografia
v obchode
odkazy
koncerty
sťahuj



pridaj vlastný článok

Aventura:
Aventura triumfovala na Billboard Latin Music Awards


Aventura:
Prehľad víťazov 2009 American Music Awards


Aventura:
V utorok vystúpi vo Viedni Aventura


Arash:
Napredávanejšie albumy na Slovensku


 

Aventura

Fanúšikov: 0



A B C Č D E F G H CH I J K L Ľ M N O P Q R S Š T U V W X Y Z Ž



ako:
Aventura - Obsesion
Aventura - Obsesion

tlač

edituj
Rok vzniku: 2006
Pesničku videlo 4497 návštevníkov.

Kvalita tabov : bez hodnotenia
Hodnotilo ľudí: 0 ohodnoť aj ty

Intro 2x
Am Em
|-------0---------|----------0------|--------0--------|---------0-------||
|-----1---1---1---|-------1---1-----|------0---0---0--|-------0---0-----||
|---2-------2---2-|-----2--------2--|----0-------0--0-|-----0-------0---||:
|-----------------|---2-----------2-|--2--------------|---2-----------2-||
|-0---------------|-0---------------|-----------------|-----------------||
|-----------------|-----------------|-0---------------|-0---------------||

sloha:
F Am F Am
|-----------1------|-----------------|------1-3p1------|---0-----3--0----|
|--------1-----1---|-----1--3p1---1--|-----1-------1---|-----1--------1--|
|------2---2--2-2--|---2--------2----|---2--- ---2---2-|-------2---------|
|-23-3-------------|-2-----2-------2-|-3---------------|-2---------------|
|------------------|-----------------|-----------------|-----------------|
|------------------|-----------------|-----------------|-----------------|

F Am F Am
|---1-----5p1-3p1--|---0-------------|-----------------|-----------------|
|------1-----1—--1-|-----1---3----1--|-----1—3p1--0101-|-----1—3p1---1---|
|-------2----------|-----------2-----|---2--2----2-----|---2-------2-----|
|-3----------------|-2-----2-------2-|-3---------------|-2------------2--|
|------------------|-----------------|-----------------|-----------------|
|------------------|-----------------|-----------------|-----------------|



sloha:

C C G G
||--------0-3p0--0--|-----------------|-----3--5-3------|--3--5--3--3--3-|
||--1---1------1-—1-|-1-----1-3p1--1--|-----3—---3-3---3|--3--5-—3--3--3-|
||----0-------------|-----0------0--0-|---4----------4--|----------------|
||------------------|---2-------------|-5---------------|----------------|
||--3---------------|-3---------------|-----------------|----------------|
||------------------|-----------------|-----------------|----------------|

Dm Dm/F Am | 1. |
|---------3-1------|---------0-------|----------------|-------0---------|
|------3-------3---|-------3---3-----|-----1—3---1-1--|-----1--1----1---|
|----2---2--- 2—3--|-----2-------2---|---2-----2--2-2-|---2-----2-----2-|
|--0---------------|--3--------------|-2--------------|-2---------------|2x
|------------------|-----------------|----------------|-----------------|
|------------------|-----------------|----------------|-----------------|





| F 2. |
|----------1-------|
|--------1-1-----—-|
|----2-------------|
|--3---------------|
|------------------|
|------------------|

TEXT:

Son las cinco de la mañana y yo no he dormido nada
Pensando en tu belleza en loco voy a parar
El insomnio es mi castigo, tu amor será mi alivio
Y hasta que no seas mía no viviré en paz
Bien conocí tu novio pequeño y no buen moso
Y sé que no te quiere, por su forma de hablar
Además tu no lo amas por que el no da la talla
No sabe complacerte como lo haría yo
Pero tendré paciencia por que el no es competencial
Por eso no hay motivos para yo respetar

Noooooo, no es amor lo que tu sientes se llama obsesión
Una ilusión en tu pensamiento
Que te hace hacer cosas
Así funciona el corazón

Bien vestido en mi Lexus pase por tu colegio
Informan que te fuiste, como un loco te fui alcanzar
Te busque y no te encontraba y eso me preocupaba
Para calmar mi ansia yo te quería llamar

Pero no tenia tu numero
Y tu amiga ya me lo negó
Ser bonito mucho me ayudo
Eso me trajo la solución
Yo sé que le gustaba y le di una mirada
Con par de palabritas tu numero me dio
Del celular llamaba y tu no contestabas
Luego te puse un beeper y no había conexión

Mi única esperanza, es que oigas mis palabras
(Ella) No puedo tengo novio
(Él) no me enganches por favor

Noooooo, no es amor
(Él) escúchame por favor
Lo que tu sientes se llama obsesión
Una ilusión
(Él) estoy perdiendo el control
En tu pensamiento
Que te hace hacer cosas
Así funciona el corazón...

Mi amor por Dios no me enganches espérate que hay mas (hablado)

Hice cita pa' el siquiatra a ver si me ayudaba
Pues ya no tengo amigos por solo hablar de ti
Lo que quiero es hablarte para intentar besarte
Será posible que con obsesión uno pueda morir (cantado rápido)
Quizás pienses que soy tonto, privon y también loco
Pero es que en el amor soy muy original
Enamoro como otros, conquisto a mi modo
Amar es mi talento, te voy a enamorar

Disculpa si te ofendo, pero es que soy honesto
Con lujos de detalles escucha mi versión
Pura crema de chocolate, juntarte y devorarte
Llevarte a otro mundo en tu mente corazón
Ven vive una aventura, hagamos mil locuras
Voy hacerte caricias que no se han inventao

No es amor, no es amor
Es una obsesión


 
»
Tvoje obľúbené položky
Tvoje obľúbené položky
»
Najnovšie videá
Najnovšie videá

»
Tvoje obľúbené piesne
Tvoje obľúbené piesne
»
Najnavštevovanejšie piesne
Najnavštevovanejšie piesne
Alexandra - text

Amor De Madre - preklad

La Nina - preklad

Ella Y Yo - text

Noche De Sexo - text

Obsesión - text

Obsesion - preklad

Obsesión - akordy

Obsession 2 - text

Obsession - preklad

Obsession- Nokia - akordy a text

Los Infieles - preklad

No No No - Sk - preklad

Mi Corazoncito - text

Amor De Madre - text

Por Tu Orgullo - text

Gone - text

Enseňame A Olvidar - text

Enseňame A Olvidar - preklad

Obsession 2- - text

viac

»
Nové albumy interpreta
Nové albumy interpreta



home | interpreti | register piesní | cd & dvd shop | pripomienky/nápady | kontakt | ochrana údajov | inzercia