Daniel Landa

piesne (308)

  texty () / preklady ()
  akordy () / taby ()
  noty () / slideshow ()

články (184)
fotogaléria
diskusia
videá
diskografia
v obchode
odkazy
koncerty
sťahuj



pridaj vlastný článok

Daniel Landa:
Daniel Landa se snaží "Ukolébavkou" společnost probudit - Vydáno: 23.05.2020 19:16 v sekci Audio - Ondřej Hricko | foto: Michal Horka SDÍLET: ... - musicserver.cz


Daniel Landa:
Daniel Landa ide do boja A TOTO radí všetkým! - pred 2 dňami Topstar.sk HudbaREDAKCIA/PKDaniel Landa ide do boja! A TOTO radí všetkým... - noviny.sk


Daniel Landa:
Daniel Landa v novém singlu marně volá: "Hoří horizont" - musicserver.cz


Daniel Landa:
Daniel Landa: Smyslem života je vnitřní mír - novinky.cz


Daniel Landa:
Daniel Landa oslaví padesátiny koncerty ve velkých halách - ceskenoviny.cz


Daniel Landa:
Dan Landa přiznal: Bojuji s finančním úřadem Kvůli Žitovi… - blesk.cz


Daniel Landa:
Krysař sa vrátil do Divadla Kalich v Prahe - R.Tomášová


Krysař:
Muzikál Krysař se vrátil v novém provedení - novinky.cz


Martin Chodúr:
Krysař je sám o sobě démonický. A stále má co říct - denik.cz


Ondřej Brzobohatý:
TOP 12 nejočekávanějších domácích alb podzimu: Mandrage, Ondřej
Brzobohatý, Mydy Rabycad a další
- ireport.cz


 

Daniel Landa

Fanúšikov: 4



A B C Č D E F G H CH I J K L Ľ M N O P Q R S Š T U V W X Y Z Ž



ako:
Daniel Landa - Vltava
Daniel Landa - Vltava

tlač

edituj
Pesničku videlo 16027 návštevníkov.

Kvalita tabov :
Hodnotilo ľudí: 2 ohodnoť aj ty

e------------------------------------------------------
b--4------9------4------9------4------3------9------4--
g--5------10-----5------10-----5------5------10-----5--
D--5------10-----5------10-----5------5------10-----5--
A--3------8------3------8------3------3------8------3--
E------------------------------------------------------

e-----------------8/7-----
b-------------------------
g------------4------------
D----------5--------------
A-------5-----------------
E--1h3--------------------

sloka:
e-------------------------------------------------------
b--4------3------9------4------4------3------9------4---
g--5------5------10-----5------5------5------10-----5---
D--5------5------10-----5------5------5------10-----5---
A--3------3------8------3------3------3------8------3---
E-------------------------------------------------------

e--------------8/7---------------------------------------
b---------------------------------------------4----------
g----------4------------1------5------1------5------4----
D--------5-------------3------6------3------5------5-----
A------5--------------3------6------3------3------5------
E--1h3---------------1------4------1-------------3-------

refrém:
e-----------------------------------------------------------
b-----------------------------------------------------------
g-----------------------------------------------------------
D--5-5-5-5-5---5-5-5-5-5--------5-5-5-5-5--5-5-5-5-5--------
A--3-3-3-3-3---3-3-3-3-3--3333--3-3-3-3-3--3-3-3-3-3--3333--
E--3-3-3-3-3---3-3-3-3-3--3333--3-3-3-3-3--3-3-3-3-3--3333--....

e----------------------------------
b----------------------------------
g------------------------5-----5---
D----5---3----5----3----5-----5----
A---5---3----5----3----3-----5-----
E--3---1----4----1----------3------

mezihra:
e--------------------------------------------------
b-----------5----------9----------7-----------------
g--------5----------10----------8----------7--------
D-----5----------10---------8----------8------------
A--3----------8----------6----------8---------------
E--------------------------------6------------------

refrém...
mezihra...
konec:
e---------------
b---------------
g---------------
D--5-5-5-5-5----
A--3-3-3-3-3----
E--3-3-3-3-3----

 
»
Tvoje obľúbené položky
Tvoje obľúbené položky
»
Najnovšie videá
Najnovšie videá

»
Tvoje obľúbené piesne
Tvoje obľúbené piesne
»
Najnavštevovanejšie piesne
Najnavštevovanejšie piesne
Andílek - akordy a text

Tajemství - akordy a text

Morituri te salutant - akordy a text

Tacho - akordy a text

Valčík - akordy a text

Ona - akordy a text

Pozdrav z fronty - akordy a text

1938 - akordy a text

Protestsong správně - akordy a text

Třista z místa - akordy a text

Touha - akordy a text

Malá díra v hlavě - akordy a text

Pozdrav Z Fronty - akordy a text

Jó ulice - akordy a text

Zombice - akordy a text

Ukolébavka - akordy a text

Sen (Krysař) - akordy

Bílá Hora - akordy a text

Šance - akordy a text

Holky a mašiny - akordy a text

viac

»
Nové albumy interpreta
Nové albumy interpreta



home | interpreti | register piesní | cd & dvd shop | pripomienky/nápady | kontakt | ochrana údajov | inzercia