Tomáš Klus


piesne (254)

  texty (180)
  akordy (163)
  taby (27)
  preklady (0)


články (503)
Fotky (42)
diskusia
videá
diskografia
v obchode
odkazy
koncerty
sťahuj



pridaj vlastný článok

Tomáš Klus:
Na co se těšit v červnu: Mirai chystají autokoncerty, Tomáš Klus, Mňága
a Žďorp nebo Sebastian zahrají na lodi a Marek Ztracený startuje turné
- Po téměř roce mohou hudební fanoušci opět vyrazit na živé koncerty. A program je ... - IREPORT


Tomáš Klus:
ROZHOVORY: Tomáš Klus - Nejsem spasitel - Písničkář Tomáš Klus vydal před pár týdny antibabišovsky laděnou desku "ČAUČ... - musicserver.cz


Atb:
Politický Tomáš Klus má dál nejprodávanější album, Imagine Dragons
ovládli rádiový éter
- ATB se v čele českého rádiového žebříčku ohřál pouze jediný týden. Německé... - musicserver.cz


Tomáš Klus:
Příběh českého hitu: Tomáš Klus – A pak - Píseň A pak se stala hitem až na druhý pokus. Tomáš Klus ji původně napsal pro se... - IREPORT


Tomáš Klus:
Tomáš Klus opanoval s písněmi o Babišovi a Zemanovi český albový
žebříček
- Kontroverzní téma nové desky Tomáše Kluse u posluchačů zafungovalo. Zpěvákova no... - musicserver.cz


Tomáš Klus:
Tomáš Klus vydává album “ČAUČESKU” - Tomáš Klus vydává speciální digitální album s osmi autorskými písněmi, jejich... - rockandpop.cz


Tomáš Klus:
RECENZE: Tomáš Klus svým politickým antibabišovským albem příliš
nepřekvapí
- Tomáš Klus vydal nové album ČAUČESKU, které je narozdíl od jeho předchozích dese... - IREPORT


Tomáš Klus:
ROZHOVOR | Tomáš Klus: Musel jsem si vzít půjčku, abych zaplatil daně.
Spousta firem zkrachuje, možná i ta moje (2. část)
- S Tomášem Klusem jsme se sešli v oblíbeném podniku Radost FX při příležitosti vy... - IREPORT


Tomáš Klus:
ROZHOVOR | Tomáš Klus: Nastal čas na politickou desku. Pro Zemana s Babišem
jsem napsal více písniček než pro svoji ženu (1. část)
- Již mnoho let upozorňuje Tomáš Klus na Zlo, které vládne naší zemi v podobě dvo... - IREPORT


Tomáš Klus:
Tomáš Klus vydává album ČAUČESKU, útočí jím na Babiše a Zemana - Tomáš Klus vydá už 30. dubna novou desku ČAUČESKU, která bude vůbec poprvé v hud... - IREPORT


 

Tomáš Klus

Fanúšikov: 18



A B C Č D E F G H CH I J K L Ľ M N O P Q R S Š T U V W X Y Z Ž



ako:
Tomáš Klus - Neklid - rozšírený tab
Tomáš Klus - Neklid - rozšírený tab

tlač

edituj
Pesničku videlo 13128 návštevníkov.

Kvalita tabov :
Hodnotilo ľudí: 1 ohodnoť aj ty
  *** Autor textu: Tomáš Klus


/ - slide (sklz)
h - hammer on (príbuch)
p - pull off (odtiahnuť)
(0) - tlmene

intro:

([C] [E] [Ami] [F])
e|-----------------------|---------|----------------------|----------|
h|-----------------------|---------|----------------------|----------|
G|----5------------(5)---|---------|---2-------0-0---(0)--|----------|
D|------5-------5----(5)-|---------|-----2-0h2-----3--(0)-|----------|
A|-3------3/5h7---7------|-----2p0-|-0--------------------|-----3h5--|
E|-----------------------|-0h3-----|----------------------|-3h5------|

e|-----------------------|---------|----------------------|-----------------------||
h|-----------------------|---------|----------------------|----------------------.||
G|----5-------------(5)--|---------|---2-------0-0---(0)--|-0--------0------------||
D|------5--------5---(5)-|---------|-----2-0h2-----3--(0)-|--3-3-3-3---3----------||
A|-3------3/5h7----7-----|-----2p0-|-0--------------------|--3-3-3-3---3-----3---.||
E|-----------------------|-0h3-----|----------------------|--------------3h5--h5--||




(slohy):

[C] [E] [Ami] [B7/E]

I._________II.___________

e|----------|---------|---------|-------0--||-----3-0--||
h|----------|---------|-----0-1-|-----3----||----------||
G|----------|-----1-2-|---2-----|---2------||---2------||
D|-----0-2--|---2-----|-2-------|-3--------||-3--------||
A|-3--------|-2-------|---------|----------||----------||
E|---3------|---------|---------|----------||----------||


/V refréne ostávajú akordy nezmenené, resp.; [C][E][Ami][F]/


Déšť smývá barvu z plakátu na staré zdi
Co vede od tvého domu až do Klimentský.
Na rohu ulic postarší prodejce knih,
Už dlouho nepřišel jediný zákazník,
Kouří - přes zákaz na dveřích.
Pošťák je floutek a čte vzkazy na pohlednicích
V divadle loutek dnes hrají ochotníci,
Jediná láska jejich života visí

Zatímco

R.: Ty ležíš ve vaně a snažíš se zastavit krev,
Teče ti po rukou a zasychá na šatech,
Svázané zápěstí páskou na koberce
A malí kluci kreslí na sklo kosočtverce.

Když z těla vyprchá život, stydne.
Když z těla vyprchá život, je klidné.

Národní třidu zas ovlád slepý harmonikář
A jeho věčně spící pes a starý taxikář,
Kterému vadí mládí.
Přes všechny prosby déšť doposud neustal,
V průchodu políbil Jan ženu na ústa,
Bylo to porvé co cítil lásku.
I ona následné doteky zpoplatní,
Obnos ať dorazí na účet do dvou dní,
Pak oba splynem s plynem

Ty ležíš ve vaně a snažíš se zastavit
Krev, teče ti po rukou a zasychá na šatech,
Svázané zápěstí páskou na koberce
A malí kluci kreslí na sklo kosočtverce.

Když z těla vyprchá život stydne.
Když z těla vyprchá život je klidné.

Klidné, klidné, klidné,
klidné, klidné, klidné,
klidné, klidné, klidné,
klidné, klidné, klidné.

 
»
Tvoje obľúbené položky
Tvoje obľúbené položky
»
Najnovšie videá
Najnovšie videá

»
Tvoje obľúbené piesne
Tvoje obľúbené piesne
»
Najnavštevovanejšie piesne
Najnavštevovanejšie piesne
Pocity - akordy a text

Pánu Bohu do oken - akordy a text

A pak - akordy

Chybíš mi - akordy a text

Nina - akordy a text

Marie - akordy

..Až.. - akordy a text

Dopis - akordy a text

Sibyla - akordy a text

DA.Muklův meč - akordy a text

VeSmíru - akordy a text

Dobré ráno (Správně) - akordy a text

Pocity - akordy

Jde voZem - akordy

Cesta - akordy a text

Do nebe - akordy a text

Nezapomínej - akordy a text

Čas - akordy a text

Pánubohu do oken - akordy a text

17B - akordy a text

viac

»
Nové albumy interpreta
Nové albumy interpreta



home | interpreti | register piesní | cd & dvd shop | pripomienky/nápady | kontakt | ochrana údajov | inzercia