Karel Gott


piesne (311)

  texty (255)
  akordy (146)
  taby (1)
  preklady (1)


články (1319)
Fotky (94)
diskusia
videá
diskografia
v obchode
odkazy
koncerty
sťahuj



pridaj vlastný článok

Lucie Bílá:
NA OKRAJ: Český slavík se po dlouhé stagnaci dočkal nových vítězů,
anketu je přesto třeba brát s nadhledem
- Karel Gott, Lucie Bílá a Kabát tvořili po mnoho let nerozlučný vítězný triumvir... - musicserver.cz


Karel Gott:
TOP 10 českých dokumentů aneb Své příběhy představují Meky, Karel Gott,
Miki Volek a další
- Už v minulém výběru top deset rockových dokumentů jsme zabrousili do české dokume... - IREPORT


Karel Gott:
Jen se dvěma ženami to Karel Gott vydržel 20 let: Setkaly se na křtu alba,
jemuž šla Ivana Gottová za kmotru
- Zpěváci Jan Smigmator (35) a ... - super.cz


Dua Lipa:
Za Vladimírem Mišíkem odstartoval v albovém žebříčku Karel Gott,
rádiím stále vládne Ed Sheeran
- Vítězové tuzemských žebříčků se v uplynulém týdnu nezměnili, za nimi ale doš... - musicserver.cz


Český Slavík:
Dva roky po smrti Karla Gotta: Obnovili Českého slávika... Kto ho nahradí?! - PRAHA - V posledných rokoch už slovenskí ani českí speváci nebojovali o sošku zlat... - topky.sk


Karel Gott:
Kdo okradl Karla Gotta? Jeho dávný spolupracovník promluvil - Úplně první dorazil na premiéru dokumentu Karel jeho dávný spolupracovník a kamar... - super.cz


Karel Gott:
Dva roky od odchodu Gotta. Na život, připíjí si zpěvák v nové ukázce z
filmu
- Celovečerní dokument Karel o Karlu Gottovi jde do kin 7. října, režisérka Olga Mal... - idnes.cz


Český Slavík:
Český slavík začal novou éru s pozměněným hlasovacím systémem i
pravidly. Karel Gott posmrtně vyhrát nemůže
- Obnovená anketa Český slavík odstartovala. Fanoušci mohou po čtyřech letech znovu ... - musicserver.cz


Karel Gott:
RECENZE: Karel Gott ve své knize 'Má cesta za štěstím' potvrzuje, že žil
krásný život
- Karel Gott nebyl žádný spisovatel, jeho autobiografie však jednoznačně patřila k n... - musicserver.cz


Karel Gott:
Karel Gott by oslavil 82. narozeniny: Od rána se u hrobu zpěváka střídají
fanoušci, přibyl i nový slavíček
- Uctít památku zpěváka Karla Gotta (?80) , který by d... - super.cz


 

Karel Gott

Fanúšikov: 2



A B C Č D E F G H CH I J K L Ľ M N O P Q R S Š T U V W X Y Z Ž



ako:
Karel Gott - Když milenky pláčou
Karel Gott - Když milenky pláčou

tlač

edituj
Rok vzniku: 1983
V originále: Anies song
Pesničku videlo 13427 návštevníkov.

Kvalita tabov : bez hodnotenia
Hodnotilo ľudí: 0 ohodnoť aj ty
Prispievateľ:
petr554
Autor hudby: John Denver
                  Když milenky pláčou / Anies song                    
Karel Gott / John Denver


Acoustic gtr.
Takt 3/4


D Dsus4 D
E E E E E E E E E E E E 3x H Q
E||------------2--------|--3-----------3---------||---2-------------|
B||---------3-----3-----|--------3--------3------||---3--------3----|
G||*-----2-----------2--|-----------2--------2--*||*--2-------------|
D||*--0-----------------|--0--------------------*||*--0-------------|
A||---------------------|------------------------||-----------------|
E||---------------------|------------------------||-----------------|


Asus4/D A G A
E E E E E E E E E E E E E E E E E E
-------------------------|--------------------|--------------------|
--3----------2-----0-----|--3--------3--------|--2--------2--------|
-----2----------2-----2--|--------0-----0-----|--------2-----2-----|
--0----------------------|-----0-----------0--|-----2-----------2--|
-------------------------|--------------------|--0-----------------|
-------------------------|--3-----------------|--------------------|


Bm B5 G G/5- Gadd11+
E E E E E E E E E E E E
--------------------|---------------------------|
-----------3-----0--|--0-----2-------3----------|
--------4-----4-----|-----0-------0----------0--|
-----4--------------|---------------------------|
--2-----------------|---------------------------|
--------------------|--3------------------------|


D D/F# D/C# D/B
E E E E E E E E E E E E E E E E E E
-------------2--------|-------------2--------|------------2--------|
-----3----------3-----|----------3-----3-----|---------3-----3-----|
--2----------------2--|-------2-----------2--|------2-----------2--|
--0-----4-------------|----------------------|---------------------|
----------------------|--4-------------------|--2------------------|
----------------------|----------------------|---------------------|


A G F#m
E E E E E E E E E E E E E E E E E E
--------------------|--------------------|---------------------|
--------0-----2-----|--3--------3--------|--2------------------|
--2--------2-----2--|--------0-----0-----|------------2--------|
-----0--------------|-----0-----------0--|---------4-----4-----|
--0-----------------|--------------------|------4-----------4--|
--------------------|--3-----------------|--2------------------|


E G G/5- Gadd11+ A
E E E E E E E E E E E E E E E E E E
--------------------|---------------------------|--------------------|
--------------0-----|--0-----2---------------3--|--2--------2--------|
-----------0-----4--|-----0-------0-------------|--------2-----2-----|
--------2-----------|----------------0----------|-----2-----------2--|
-----2--------------|---------------------------|--0-----------------|
--0-----------------|--3------------------------|--------------------|


Asus4 A Asus4
E E E E E E E E E E E E E E E E E E
-----------------------|--0-----------------|-----------------------|
--3-----------3--------|--------2-----3-----|--3--------2-----0-----|
--------2--------2-----|-----2-----------2--|--------2-----2-----2--|
-----------2--------2--|--------------------|-----------------------|
--0--------------------|--0--------0--------|--0--------------------|
-----------------------|--------------------|-----------------------|


G A Bm
E E E E E E E E E E E E E E E E E E
--------------------|--0-----------------|-----------2--------|
--3--------3--------|-----------2--------|--------------3-----|
--------0-----0-----|--------2-----2-----|--------4--------4--|
-----0-----------0--|-----2-----------2--|-----4--------------|
--------------------|--0-----------------|--2-----------------|
--3-----------------|--------------------|--------------------|


Dsus4/G G/5- G D D/F#
E E E E E E E E E E E E
---------------------------|-------------2--------|
--3----------2-------0-----|-----3----------3-----|
----------0-------0-----0--|--2----------------2--|
---------------------------|--0-----4-------------|
---------------------------|----------------------|
--3------------------------|----------------------|


D/B A
E E E E E E E E E E E E E E E E E E
-----------2--------|------------2--------|--------------------|
--------3-----3-----|---------3-----3-----|--------0-----2-----|
-----2-----------2--|------2-----------2--|--2--------2-----2--|
--------------------|---------------------|-----0--------------|
--4-----------------|--2------------------|--0-----------------|
--------------------|---------------------|--------------------|


G F# Em
E E E E E E E E E E E E E E E E E E
--------------------|--------------------|--------------------|
--3--------3--------|--2-----------------|--------------0-----|
--------0-----0-----|-----------2--------|-----------0-----0--|
-----0-----------0--|--------4-----4-----|--------2-----------|
--------------------|-----4-----------4--|-----2--------------|
--3-----------------|--2-----------------|--0-----------------|


A7 D Dsus4
E E E E E E E E E E E E E E E E E E
-----------------0--|-----------2--------|--3-----------3---------||
--2-----3-----------|--3-----3-----3-----|--------3--------3------||
-----0-----0--------|-----2-----------2--|-----------2--------2--*||
--------------2-----|--0-----------------|--0--------------------*||
--0-----------------|--------------------|------------------------||
--------------------|--------------------|------------------------||


D Dsus4 D
E E E E E E E E E E E E E E E E E E
-----------2--------|--3-----------3--------|--2--------2--------|
--------3-----3-----|--------3--------3-----|--------3-----3-----|
-----2-----------2--|-----------2--------2--|-----2-----------2--|
--0-----------------|--0--------------------|--0-----------------|
--------------------|-----------------------|--------------------|
--------------------|-----------------------|--------------------|


Dsus4 D
E E E E E E H.
--3-----------3--------|--2------------||
--------3--------3-----|--3------------||
-----------2--------2--|--2------------||
--0--------------------|--0------------||
-----------------------|---------------||
-----------------------|---------------||


v pdf:
https://www.dropbox.com/s/txgxaydd0ajsfaz/
Gott%2CKarel_Kdy%C5%BE%20milenky%20pl%C3%A1%C4%8Dou.pdf

Duration Legend
---------------
W - whole
H - half
Q - quarter
E - 8th
S - 16th
T - 32nd
X - 64th
. - note dotted
|-n-| - n-tuplets


Tablature Legend
----------------
L - tied note
x - dead note
g - grace note
(n) - ghost note
> - accentuded note
NH - natural harmonic
AH - artificial harmonic
TH - tapped harmonic
SH - semi harmonic
PH - pitch harmonic
h - hammer on
p - pull off
b - bend
br - bendRelease
pb - preBend
pbr - preBendRelease
brb - bendReleaseBend
\n/ - tremolo bar dip
\n - tremolo bar dive
-/n - tremolo bar Release up
/n\ - tremolo bar inverted dip
/n - tremolo bar return
-\n - tremolo bar Release down
S - shift slide
s - legato slide
/ - slide into from below or out of upwards
\ - slide into from above or out of downwards
~ - vibrato
W - wide vibrato
tr - trill
TP - tremolo picking
T - tapping
S - slap
P - pop
< - fade in
^ - brush up
v - brush down

 
»
Tvoje obľúbené položky
Tvoje obľúbené položky
»
Najnovšie videá
Najnovšie videá

»
Tvoje obľúbené piesne
Tvoje obľúbené piesne
»
Najnavštevovanejšie piesne
Najnavštevovanejšie piesne
Srdce nehasnou - akordy a text

Trezor - akordy a text

C`est la vie - akordy a text

Být stále mlád - akordy a text

Být stále mlád - akordy a text

Stokrát chválím čas - akordy a text

Jdi za štěstím... Správně! - akordy a text

Lady Karneval - akordy a text

Když milenky pláčou - akordy a text

Když jsem já byl tenkrát kluk - akordy a text

Už z hor zní zvon - akordy a text

Když muž se ženou snídá - akordy a text

Kávu si osladím - akordy a text

Jen se hádej - akordy a text

Včelka Mája - akordy a text

Je jaká je - akordy a text

Babylon - akordy a text

Zvonky štěstí - akordy a text

Mám rozprávkový dom - akordy a text

Svet lásku má - akordy a text

viac

»
Nové albumy interpreta
Nové albumy interpreta



home | interpreti | register piesní | cd & dvd shop | pripomienky/nápady | kontakt | ochrana údajov | inzercia