Maroon 5


piesne (253)

  texty (138)
  akordy (18)
  taby (13)
  preklady (94)


články (172)
Fotky (44)
diskusia
videá
diskografia
v obchode
odkazy
koncerty
sťahuj



pridaj vlastný článok

Grammy:
Maroon 5 oznamujú nový album Jordi. Vyjde už 11. júna - Americká pop-rocková kapela Maroon 5 pochádzajúca z Los Angeles, ktorá má na svojom... - zoznam.sk


Maroon 5:
Americká kapela Maroon 5 oznamuje príchod nového albumu - Maroon 5 je americká pop-rocková kapela pochádzajú z Los Angeles, ktorá má na svoj...


Jordan:
Maroon 5 věnují nové album zesnulému manažerovi Jordanovi - Americká formace Maroon 5 slibuje novou studiovku již vcelku dlouho. Není se čemu div... - musicserver.cz


Maroon 5:
AUDIO: Maroon 5 a Megan Thee Stalion zpívají o krásných chybách ve vztahu i
po něm
- Maroon 5 nejsou ve světě popmusic žádná béčka - do světa pouštějí jednu pecku ... - musicserver.cz


Maroon 5:
Novinka EVROPA 2 MUSIC CHART: MAROON 5 – Nobody’s Love - Představujeme novinku č. 1 v hitparádě! The post Novinka EVROPA 2 MUSIC CHART: MAROO... - evropa2.cz


Maroon 5:
Nový ADAM LEVINE! V klipu MAROON 5 si holohlavý balí jointa - Máte rádi skupinu Maroon 5 a žerete jejího frontmana, zpěváka Adama Levina? Pak vá... - evropa2.cz


Maroon 5:
Člen Maroon 5 obviněn z domácího násilí: Za mlácení přítelkyně mu
hrozí 6 let!
- Fanoušci americké pop-rockové skupiny Maroon 5 jsou v šoku. Jeden ze zakládající...


AIKO:
Nové desky 18/2020 - od Marka Lanegana přes Butche Walkera po Hayley Williams - Vydáno: 13.05.2020 05:35 v sekci Nové desky - Tomáš Parkan a Petra Hubáčková | fot... - musicserver.cz


Maroon 5:
Maroon 5 v "Memories" vzpomínají na zesnulého manažera - musicserver.cz


Phil Collins:
Světové hudební hvězdy v Česku. Do Prahy míří třeba Kiss, Maroon 5 či
Phil Collins
- lidovky.cz


 

Maroon 5

Fanúšikov: 2



A B C Č D E F G H CH I J K L Ľ M N O P Q R S Š T U V W X Y Z Ž



ako:
Maroon 5 - Not Coming Home
Maroon 5 - Not Coming Home

tlač

edituj
Pesničku videlo 1844 návštevníkov.

Kvalita tabov : bez hodnotenia
Hodnotilo ľudí: 0 ohodnoť aj ty

e---------------------------------------------------------------------------
B---------------------------------------------------------------------------
G---------------------------------------------------------------------------
D-------------2~-----------------------2~----4----------2-------------------
A-----3--4--------------------3--4------------------------0------0-0-0-0-0--
E-------------------------------------------------------------------------4-

Intro(Guitar 2):
(A Bit Distorted)
e---------------------------------------------------------------------------
B----------------7-5-4-----------------------5--4-----------4\5-4-----------
G------------------------6--4-4\6--6---------------------------------6--5---
D---------------------------------------------------------------------------
A---------------------------------------------------------------------------
E---------------------------------------------------------------------------

Verse(Guitar 1):
(Clean)
e---------------------------------------------------------------------------
B---------------------------------------------------------------------------
G-----5--6---9---------------5--6---9-----11---------9----------------------
D-----x--x---x---------------x--x---x------x---------x---7------7--7--7--6--
A-----3--4---7---------------3--4---7------9---------7---x------x--x--x--x--
E--------------------------------------------------------5------5--5--5--4--

Verse(Guitar 2):
(Jammed and Distorted, Improvise on most of this with same scales)
e---------------------------------------------------------------------------
B----------------7-5-4-----------------------5--4-----------0\5-4-----------
G------------------------6--4-0\6--6---------------------------------6--5---
D---------------------------------------------------------------------------
A---------------------------------------------------------------------------
E---------------------------------------------------------------------------


Chorus(Guitar 1, Guitar 2 funk jam):
(Clean mostly, semi distorted, can play clean though)
e---------------------------------------------------------------------------
B------5--5---------5--5--------5--5-------5--5-------------------5------5--
G------6--6---------6--6--------6--6-------6--6-----( 3x )--------6------6--
D------6--6---------6--6--------6--6-------6--6-------------------6------6--
A------x--x---------x--x--------3--3-------4--4-------------------x------x--
E------5--5---------7--7------------------------------------------5------7�-

Order:
Intro(Guitar 1 and 2)

Verse(Guitar 1 and 2)\

 
»
Tvoje obľúbené položky
Tvoje obľúbené položky
»
Najnovšie videá
Najnovšie videá

»
Tvoje obľúbené piesne
Tvoje obľúbené piesne
»
Najnavštevovanejšie piesne
Najnavštevovanejšie piesne
Memories - akordy a text

She Will Be Loved - akordy a text

Sugar - text

Shiver - preklad

Runaway - text

Stutter - preklad

Payphone - preklad

This Love - akordy a text

She Will Be Loved - preklad

Misery - preklad

One More Night - preklad

Harder To Breathe - akordy a text

Sad - preklad

Maps - preklad

Cold (feat. Future) - text

Every Breath You Take - text

Tangled - preklad

Secret - preklad

Shiver - Cz - preklad

She Will Be Loved/ Bude Milována - preklad

viac

»
Nové albumy interpreta
Nové albumy interpreta



home | interpreti | register piesní | cd & dvd shop | pripomienky/nápady | kontakt | ochrana údajov | inzercia