Čechomor


piesne (165)

  texty (137)
  akordy (107)
  taby (12)
  preklady (1)


články (399)
Fotky (33)
diskusia
videá
diskografia
v obchode
odkazy
koncerty
sťahuj



pridaj vlastný článok

Čechomor:
Legenda slovenského folklóru SĽUK a kapela Čechomor na jednom pódiu v
Trnave!
- Vo štvrtok 16.6.2022 zavítajú na Trnavský amfiteáter dve úžasné hudobné zoskup... - bleskovky.sk


Čechomor:
Martina je naše mamka, zpěvačky jsme vzali na milost, tvrdí Čechomor - Kapela Čechomor natočila společný klip se slovenským souborem Kandráčovci a chyst... - idnes.cz


Čechomor:
ČECHOMOR Byla vojna a bude turné - Skupina Čechomor navázala na předchozí spolupráci se slovenskými Kandráčovci a na... - rockandpop.cz


Čechomor:
Skupina Čechomor vydala klip s Kandráčovci a chystá se s nimi na turné - Praha - Skupina Čechomor navázala na předchozí spolupráci se slovenskými Kandr... - ceskenoviny.cz


Čechomor:
Čechomor a Kandráčovci v unikátním spojení - ... - rockandpop.cz


Čechomor:
Čechomor natočil s Kandráčovci singl Byla vojna - Skupina Čechomor nahrála se slovenskými Kandráčovci píseň a klip Byla vojna. V l... - novinky.cz


Čechomor:
Benefiční koncert Hrajeme pro Ukrajinu - Skupina Čechomor ve spolupráci s Nadací Kooperativy a slovenskou skupinou Kandráčo... - novinky.cz


Čechomor:
Veronika Rabada a Čechomor nahrali spoločnú vianočnú pieseň - Nová vianočná skladba Veroniky Rabada a Čechomoru tak, ako ich celá tvorba čerpá z...


Čechomor:
VIDEO: Veronika Rabada a Čechomor upekli k 'Vánočce' minecraftovský
klip
- Čechomor má nejkrásnější svátky v roce hodně rád. Jeho album "Sváteční Čecho... - musicserver.cz


Čechomor:
VIDEO: Čechomor přináší fanouškům 'Ještě několik radostí života'.
Jednou z nich je i povedený klip 'Trakač'
- Čechomor už tradičně své nové album prezentuje v mnoha verzích - rozšířených. ... - musicserver.cz


 

Čechomor

Fanúšikov: 11



A B C Č D E F G H CH I J K L Ľ M N O P Q R S Š T U V W X Y Z Ž



ako:
Čechomor - Slunéčko
Čechomor - Slunéčko

tlač

edituj
Poznámka: tiborec@gmail.com

Pesničku videlo 7078 návštevníkov.

Kvalita tabov : bez hodnotenia
Hodnotilo ľudí: 0 ohodnoť aj ty
Prispievateľ:
tiBorec
  *** Autor textu: ?echomor *** Autor hudby: ?echomor
{Intro}
D D4
e |-----------------------------------|
h |-----3--------3-----3-----3-----3--|
g |--------2--------------0-----0-----|
D |--0--------0-----0-----------------|
A |-----------------------------------|
E |-----------------------------------|

{Mezihra}
D C D C
e |--2--0-----------|--------------|--2--0-----------|-----0--|
h |--------3-----0--|--1--0--------|--------3-----0--|--1-----|
g |-----------2-----|--------2--0--|-----------2-----|--------|
D |-----------------|--------------|-----------------|--------|
A |-----------------|--------------|-----------------|--------|
E |-----------------|--------------|-----------------|--------|

D C A
|--2--0-----------|--------------|-----------------|--0-----|
|--------3-----0--|--1--0--------|-----0--2--2--3--|-----2--|
|-----------2-----|--------2--0--|--2--------------|--------|
|-----------------|--------------|-----------------|--------|
|-----------------|--------------|-----------------|--------|
|-----------------|--------------|-----------------|--------|

{Outro}
D C D C D A
e |---------------------10--8--10--8--7---------------|--7h8--10--7-------------------------|
h |-----------7--8--10-------------------10--8--7-----|--------------10--8--7--7--8--10-----|
g |--7--7--9---------------------------------------7--|----------------------------------9--|
D |---------------------------------------------------|-------------------------------------|
A |---------------------------------------------------|-------------------------------------|
E |---------------------------------------------------|-------------------------------------|

D C D
|---------------------10--8--10--8--7---------------|-------------------------------------|
|-----------7--8--10-------------------10--8--7-----|--------7--------------7-----7-------|
|--7--7--9---------------------------------------7--|--7--9-----9--7--7--9-----9-----9--7-|
|---------------------------------------------------|-------------------------------------|
|---------------------------------------------------|-------------------------------------|
|---------------------------------------------------|-------------------------------------|

{Coda}
e |---------------|-----------|--------|--------|
h |--7h8p7--------|-----------|--------|--------|
g |---------9--7--|--2--2--5--|--0--2--|--------|
D |---------------|-----------|--------|--3--0--|
A |---------------|-----------|--------|--------|
E |---------------|-----------|--------|--------|

{Finish}
e |--5-----------5-----------------5-----|
h |-----7-----7-----7--------5--------5--|
g |--------7--------------7-----7--------|
D |--------------------5-----------------|
A |--------------------------------------|
E |--------------------------------------|


8x {Intro}

1. sloka

2. sloka

3. sloka

{Mezihra}

4. sloka

5. sloka

6. = 1. sloka

4x {Outro}

{Coda}

{Mezihra}

4x {Finish}

 
»
Tvoje obľúbené položky
Tvoje obľúbené položky
»
Najnovšie videá
Najnovšie videá

»
Tvoje obľúbené piesne
Tvoje obľúbené piesne
»
Najnavštevovanejšie piesne
Najnavštevovanejšie piesne
Mezi horami - trochu lehčí - akordy a text

Proměny - akordy a text

Místečko - akordy a text

Hruška - akordy a text

Velické zvony - akordy a text

Gorale - akordy a text

Vyšly ryby - akordy a text

Stará pivničková - akordy a text

Mezi horami (lehká verze, správně) - akordy a text

Proměny - taby

Až já půjdu povandruju - akordy a text

Neber sobě - akordy a text

Zálinský - akordy a text

Sedzí vrabček na pilíri - akordy a text

Tady jsem doma - akordy a text

Hej, bystrá voda - akordy a text

Husičky, husičky - akordy a text

Den přeslavný - akordy a text

Proměny (Správne) - text

Tisíc andělů - akordy a text

viac

»
Nové albumy interpreta
Nové albumy interpreta



home | interpreti | register piesní | cd & dvd shop | pripomienky/nápady | kontakt | ochrana údajov | inzercia