Čechomor


piesne (165)

  texty (137)
  akordy (107)
  taby (12)
  preklady (1)


články (399)
Fotky (33)
diskusia
videá
diskografia
v obchode
odkazy
koncerty
sťahuj



pridaj vlastný článok

Čechomor:
V kapele Čechomor koluje slovenská krv: Tomuto človeku vďačí spevák za
záchranu života!
- BRATISLAVA - Na Tehelnom poli v Bratislave včera odštartoval prvý ročník Lovestream ... - topky.sk


Čechomor:
Legenda slovenského folklóru SĽUK a kapela Čechomor na jednom pódiu v
Trnave!
- Vo štvrtok 16.6.2022 zavítajú na Trnavský amfiteáter dve úžasné hudobné zoskup... - bleskovky.sk


Čechomor:
Martina je naše mamka, zpěvačky jsme vzali na milost, tvrdí Čechomor - Kapela Čechomor natočila společný klip se slovenským souborem Kandráčovci a chyst... - idnes.cz


Čechomor:
ČECHOMOR Byla vojna a bude turné - Skupina Čechomor navázala na předchozí spolupráci se slovenskými Kandráčovci a na... - rockandpop.cz


Čechomor:
Skupina Čechomor vydala klip s Kandráčovci a chystá se s nimi na turné - Praha - Skupina Čechomor navázala na předchozí spolupráci se slovenskými Kandr... - ceskenoviny.cz


Čechomor:
Čechomor a Kandráčovci v unikátním spojení - ... - rockandpop.cz


Čechomor:
Čechomor natočil s Kandráčovci singl Byla vojna - Skupina Čechomor nahrála se slovenskými Kandráčovci píseň a klip Byla vojna. V l... - novinky.cz


Čechomor:
Benefiční koncert Hrajeme pro Ukrajinu - Skupina Čechomor ve spolupráci s Nadací Kooperativy a slovenskou skupinou Kandráčo... - novinky.cz


Čechomor:
Veronika Rabada a Čechomor nahrali spoločnú vianočnú pieseň - Nová vianočná skladba Veroniky Rabada a Čechomoru tak, ako ich celá tvorba čerpá z...


Čechomor:
VIDEO: Veronika Rabada a Čechomor upekli k 'Vánočce' minecraftovský
klip
- Čechomor má nejkrásnější svátky v roce hodně rád. Jeho album "Sváteční Čecho... - musicserver.cz


 

Čechomor

Fanúšikov: 11



A B C Č D E F G H CH I J K L Ľ M N O P Q R S Š T U V W X Y Z Ž



ako:
Čechomor - Konicky
Čechomor - Konicky

tlač

edituj
Pesničku videlo 5819 návštevníkov.

Kvalita tabov : bez hodnotenia
Hodnotilo ľudí: 0 ohodnoť aj ty

predohra:
e|-------0-3-2-----0-------|
h|-----0-------0-3---------|
g|-------------------------|
d|-------------------------|
a|-------------------------|
e|-0-----------------------|

husle:
e|----------------------|------0---------------|
h|-0--------------------|-0---------3--1--0----|
g|------2----0----------|----------------------|
d|--------------4--2----|----------------------|
a|----------------------|----------------------|
e|----------------------|----------------------| 1x


e|------0----------------------------------------|
h|-0---------3--1--0-----------------------------|
g|--------------------2--0-----------------------|
d|----------------------------4---5-4/5-4/0-2----|
a|-----------------------------------------------|
e|-----------------------------------------------| 2x


medzihra:
e|---------------------------------------------0--------|
h|---------0------------------------------0--0---3-2-0--|
g|-------0-----0------------0-2-------0-2---------------|
d|-2--4------4---2--2-0-2-4-----2---4-------------------|
a|------------------------------------------------------|
e|------------------------------------------------------| 1x


e|--0-0---0--0-3-2-0---2-0---0----------------------------|
h|0-----3------------3-----3---3-0--0---------------------|
g|------------------------------------2-0-----------------|
d|----------------------------------------4-2--0-2-4-0-2--|
a|--------------------------------------------------------|
e|--------------------------------------------------------| 2x


sloha:
e|------------------------|-------0-0------------|
h|-0---1-0----------------|-0-0---------3--1--0--|
g|---------2---0----------|----------------------|
d|----------------4--2----|----------------------|
a|------------------------|----------------------|
e|------------------------|----------------------| 1x
kdyz jsem koval konicky byl jsem u svy ancicky


e|-------0-0---------------|---------------------|
h|-0-0---------3--1--0-----|-------0-0-----------|
g|---------------------2---|-0---2-------0-------|
d|-------------------------|---------------4---2-|
a|-------------------------|---------------------|
e|-------------------------|---------------------| 2x
nechtela mne domu pustit az nebudu hvezdicky

 
»
Tvoje obľúbené položky
Tvoje obľúbené položky
»
Najnovšie videá
Najnovšie videá

»
Tvoje obľúbené piesne
Tvoje obľúbené piesne
»
Najnavštevovanejšie piesne
Najnavštevovanejšie piesne
Mezi horami - trochu lehčí - akordy a text

Proměny - akordy a text

Místečko - akordy a text

Hruška - akordy a text

Velické zvony - akordy a text

Gorale - akordy a text

Vyšly ryby - akordy a text

Stará pivničková - akordy a text

Mezi horami (lehká verze, správně) - akordy a text

Proměny - taby

Až já půjdu povandruju - akordy a text

Neber sobě - akordy a text

Zálinský - akordy a text

Sedzí vrabček na pilíri - akordy a text

Tady jsem doma - akordy a text

Hej, bystrá voda - akordy a text

Husičky, husičky - akordy a text

Den přeslavný - akordy a text

Proměny (Správne) - text

Tisíc andělů - akordy a text

viac

»
Nové albumy interpreta
Nové albumy interpreta



home | interpreti | register piesní | cd & dvd shop | pripomienky/nápady | kontakt | ochrana údajov | inzercia