Maroon 5


piesne (253)

  texty (138)
  akordy (18)
  taby (13)
  preklady (94)


články (172)
Fotky (44)
diskusia
videá
diskografia
v obchode
odkazy
koncerty
sťahuj



pridaj vlastný článok

Grammy:
Maroon 5 oznamujú nový album Jordi. Vyjde už 11. júna - Americká pop-rocková kapela Maroon 5 pochádzajúca z Los Angeles, ktorá má na svojom... - zoznam.sk


Maroon 5:
Americká kapela Maroon 5 oznamuje príchod nového albumu - Maroon 5 je americká pop-rocková kapela pochádzajú z Los Angeles, ktorá má na svoj...


Jordan:
Maroon 5 věnují nové album zesnulému manažerovi Jordanovi - Americká formace Maroon 5 slibuje novou studiovku již vcelku dlouho. Není se čemu div... - musicserver.cz


Maroon 5:
AUDIO: Maroon 5 a Megan Thee Stalion zpívají o krásných chybách ve vztahu i
po něm
- Maroon 5 nejsou ve světě popmusic žádná béčka - do světa pouštějí jednu pecku ... - musicserver.cz


Maroon 5:
Novinka EVROPA 2 MUSIC CHART: MAROON 5 – Nobody’s Love - Představujeme novinku č. 1 v hitparádě! The post Novinka EVROPA 2 MUSIC CHART: MAROO... - evropa2.cz


Maroon 5:
Nový ADAM LEVINE! V klipu MAROON 5 si holohlavý balí jointa - Máte rádi skupinu Maroon 5 a žerete jejího frontmana, zpěváka Adama Levina? Pak vá... - evropa2.cz


Maroon 5:
Člen Maroon 5 obviněn z domácího násilí: Za mlácení přítelkyně mu
hrozí 6 let!
- Fanoušci americké pop-rockové skupiny Maroon 5 jsou v šoku. Jeden ze zakládající...


AIKO:
Nové desky 18/2020 - od Marka Lanegana přes Butche Walkera po Hayley Williams - Vydáno: 13.05.2020 05:35 v sekci Nové desky - Tomáš Parkan a Petra Hubáčková | fot... - musicserver.cz


Maroon 5:
Maroon 5 v "Memories" vzpomínají na zesnulého manažera - musicserver.cz


Phil Collins:
Světové hudební hvězdy v Česku. Do Prahy míří třeba Kiss, Maroon 5 či
Phil Collins
- lidovky.cz


 

Maroon 5

Fanúšikov: 2



A B C Č D E F G H CH I J K L Ľ M N O P Q R S Š T U V W X Y Z Ž



ako:
Maroon 5 - Thiis Love - Basa
Maroon 5 - Thiis Love - Basa

tlač

edituj
Pesničku videlo 1720 návštevníkov.

Kvalita tabov : bez hodnotenia
Hodnotilo ľudí: 0 ohodnoť aj ty

Intro:
G|-------------------|
D|---------5-4-3-----|
A|--2~--3~--------2~-|
E|-------------------|


Verse:
G|---------------------------------|
D|------------0-----5-4-3---3-1-0--|
A|----1-2---2---3------------------|
E|--4------------------------------|



Chorus:
G|-----------------------------------------------------------------------------|
D|----------------------1~-1~-------------------1~-2~-------------------1~-1~--|
A|--x-3x3-3-------1x1x1-------3x3-3-------1x1x1-------3x3-3-------1x1x1--------|
E|----------1--x1-------------------1--x1-------------------1--x1--------------|


End of the Chorus:
G|-------------------------------|
D|--------3--x3--6x6-6xx--5-3----|
A|--3x3-3---------------------2--|
E|-------------------------------|



Verse:
G|--------------------------------|-silence-|---------------------------|
D|----0-----5-4-3---3-1-0---------|-silence-|-----5-4-3---3-1-0---------|
A|--2---3--------------------1-2--|-silence-|-3~-------------------1-2--|
E|-------------------------4------|-silence-|--------------------4------|


G|-------------------------|
D|----0-----5-4-3---3-1-0--|
A|--2---3------------------|
E|-------------------------|



Chorus:
G|-----------------------------------------------------------------------------|
D|----------------------1~-1~-------------------1~-2~-------------------1~-1~--|
A|--x-3x3-3-------1x1x1-------3x3-3-------1x1x1-------3x3-3-------1x1x1--------|
E|----------1--x1-------------------1--x1-------------------1--x1--------------|

End of the Chorus:
G|-------------------------------|
D|--------3--x3--6x6-6xx--5-3----|
A|--3x3-3---------------------2--|
E|-------------------------------|



Verse:
G|------------------------------|
D|----0-----5-4-3---3-1-0-------|
A|--2---3-----------------------|
E|-------------------------xxx--|



Bridge:
|--------------------------|
|--------------------------|
|--8~----6~----2~----3~----|
|--------------------------|

|--------------------------|
|--------------------------|
|--8~----6~----10~---------|
|--------------------------|

 
»
Tvoje obľúbené položky
Tvoje obľúbené položky
»
Najnovšie videá
Najnovšie videá

»
Tvoje obľúbené piesne
Tvoje obľúbené piesne
»
Najnavštevovanejšie piesne
Najnavštevovanejšie piesne
Memories - akordy a text

She Will Be Loved - akordy a text

Sugar - text

Shiver - preklad

Runaway - text

Stutter - preklad

Payphone - preklad

This Love - akordy a text

She Will Be Loved - preklad

Misery - preklad

One More Night - preklad

Harder To Breathe - akordy a text

Sad - preklad

Maps - preklad

Cold (feat. Future) - text

Every Breath You Take - text

Tangled - preklad

Secret - preklad

Shiver - Cz - preklad

She Will Be Loved/ Bude Milována - preklad

viac

»
Nové albumy interpreta
Nové albumy interpreta



home | interpreti | register piesní | cd & dvd shop | pripomienky/nápady | kontakt | ochrana údajov | inzercia