Blue Effect


piesne (20)

  texty (10)
  akordy (6)
  taby (9)
  preklady (0)


články (114)
Fotky (17)
diskusia
videá
diskografia
v obchode
odkazy
koncerty
sťahuj



pridaj vlastný článok

Blue Effect:
Vladimír Mišík vydá v září nové album s názvem Noční obraz - Praha - Zpěvák, hudebník a zakládající člen kapel Blue Effect a Etc... Vladim... - ceskenoviny.cz


Blue Effect:
Vladimír Mišík kvůli dlouhodobým zdravotním problémům končí s
koncertováním
- Zpěvák, hudebník a zakládající člen kapel Blue Effect a Etc... Vladimír Mišík n... - idnes.cz


Blue Effect:
Omlouvám se, už nemohu. Vladimír Mišík oznámil, že končí s
koncertováním
- Zpěvák, hudebník a zakládající člen kapel Blue Effect a Etc... Vladimír Mišík... - novinky.cz


Blue Effect:
Honza Křížek mění sestavu a chystá druhou sólovku - Honza Křížek využil nucenou koncertní pauzu k přemýšlení. Výsledkem je, že zp... - musicserver.cz


Abraxas:
Vychádza Art Rock Line 1971–1985. Šiesty diel populárnej Line edície - Vychádza Art Rock Line 1971–1985. Šiesty diel populárnej Line edície 04.02.2021 ... - zoznam.sk


Blue Effect:
TOP 10 instrumentálních písní. Pššššt! Když nezpívají Pink Floyd, Led
Zeppelin, Blue Effect, Mr Oizo a další
- Česká republika už třetí týden připomíná Půlnoční království, zpěv na veř... - IREPORT


Blue Effect:
Brno uctí rockovou legendu: Oldřichovi Veselému (†70) postaví pomník ve
skupině čestných hrobů
- Proslul jako skladatel, zpěvák a klávesista ve skupinách Synkopy 61 a Blue Effect. B... - blesk.cz


Blue Effect:
Členové Blue Effectu Radima Hladíka oživí s orchestrem a hosty kultovní
Novou Syntézu
- ČLENOVÉ BLUE EFFECTU RADIMA HLADÍKA OŽIVÍ S HOSTY KULTOVNÍ NOVOU SYNTÉZU. DORAZÍ ... - rockandpop.cz


Blue Effect:
Rodina kytaristy Hladíka pokřtí předělávku alba Nová syntéza - Praha - Křest předělávky desek Nová syntéza a Nová syntéza 2 rockové skupiny... - ceskenoviny.cz


Blue Effect:
V reedici vyšel komplet Nová syntéza kapely Blue Effect - 16 března 2020 Milan Slezák Žádné komentáře Novinky V reedici vyšel komplet N... - rockandpop.cz


 

Blue Effect

Fanúšikov: 0



A B C Č D E F G H CH I J K L Ľ M N O P Q R S Š T U V W X Y Z Ž



ako:
Blue Effect - Boty-hlavní riff z 3 části
Blue Effect - Boty-hlavní riff z 3 části

tlač

edituj
Rok vzniku: 2006
V originále: Radim Hladík a Blue effect
Poznámka: Za chyby se p?edem omlouvám hlavn? autrovi.

Pesničku videlo 5270 návštevníkov.

Kvalita tabov : bez hodnotenia
Hodnotilo ľudí: 0 ohodnoť aj ty
  *** Autor textu: instrumentální *** Autor hudby: Radim Hladík

riff A

E--------------------------------------------------------------------------------------------
B--------------------------------------------------------------------------------------------
G--------------------------------------------------------------------------------------------
D-----4--2--0----------0--2--0----------------------------------------------------------
A----------------4------------------4--2--0--2--0---------------------------------------
E--------------------------------------------------------------------------------------------

riff B

E-----4--2--0----------0--2--0------------------------------------------------------------
B---------------4------------------4--2--0--2--0------------------------------------------
G---------------------------------------------------------------------------------------------
D---------------------------------------------------------------------------------------------
A---------------------------------------------------------------------------------------------
E---------------------------------------------------------------------------------------------

Pořadí hraní:
kytara 1-A,A,A,A,A,A,A,A,A,A,A,
kytara 2- B,B,B,B,B,B,B,B,B,
kytara 3- B,B,B,B,B,B,B,

potom je tam bridge na klávesy a
pak to je pořád to samí až do nástupu
dalšího riffu.


 
»
Tvoje obľúbené položky
Tvoje obľúbené položky
»
Najnovšie videá
Najnovšie videá

»
Tvoje obľúbené piesne
Tvoje obľúbené piesne
»
Najnavštevovanejšie piesne
Najnavštevovanejšie piesne
»
Nové albumy interpreta
Nové albumy interpreta



home | interpreti | register piesní | cd & dvd shop | pripomienky/nápady | kontakt | ochrana údajov | inzercia