Team


piesne (201)

  texty (178)
  akordy (80)
  taby (15)
  preklady (0)


články (192)
Fotky (22)
diskusia
videá
diskografia
v obchode
odkazy
koncerty
sťahuj



pridaj vlastný článok

Pavol Habera:
Pozri si klip Teamu z obdobia, keď mal Paľo Habera ešte medzierku medzi
zubami
- Hudba Palo HaberaTeam Rok 1988 patril na Slovensku skupine Team. Sympatie poslucháčo... - expres.sk


Pavol Habera:
Habera si vie užívať aj počas pandémie koronavírusu: Útek do vily na
Floride
- 30 zdieľaní Zdieľaj Diskusia / 19 Zapnúť upozornenia Máte tip? Dajte nám vedi... - cas.sk


Pavol Habera:
Prečo mal Team v roku 1989 dva odlišné klipy k jednej piesni? - Hudba Team V roku 1989 boli už Team v Československu veľké hviezdy a užívali si ... - expres.sk


Pavol Habera:
FOTO Vtipné premeny Haberu vás dostanú: Zuby ako HRABLE, divoké HÁRO či
zarezané ŠORTKY
- Paľo Habera kedysi a dnes. Líder skupiny Team Paľo Habera (57) patrí bez pochýb med... - pluska.sk


Pavol Habera:
Na Benátskou s Impulsem dorazí německá zpěvačka Nena. Další nově
ohlášenou hvězdou je Paľo Habera a Team6. února 2020 (13:31)
- Zahraničním headlinerem osmadvacátého ročníku festivalu Benátská! s Impulsem, kte... - musicgate.cz


Pavol Habera:
Habera a Team v Bratislave: tisíce fanúšikov, nesmrteľné hity aj
legendárne kraťasy
- zoznam.sk


Pavol Habera:
Víkendový koncert Haberu s kapelou bol pre mnohých zážitkom roka - netky.sk


Pavol Habera:
Habera váhal, či pridať koncert pre Bratislavu. Čo nakoniec rozhodlo? - pravda.sk


Pavol Habera:
Team vypredávajú aj pridaný bratislavský koncert - radiokosice.sk


Pavol Habera:
Habera dostal po koncerte správu od fanúšičky: Hodil jej dcére uterák,
toto nasledovalo!
- cas.sk


 

Team

Fanúšikov: 4



A B C Č D E F G H CH I J K L Ľ M N O P Q R S Š T U V W X Y Z Ž



ako:
Team - Držím ti miesto
Team - Držím ti miesto

tlač

edituj
Pesničku videlo 21857 návštevníkov.

Kvalita tabov :
Hodnotilo ľudí: 2 ohodnoť aj ty

Team - Držím ti miesto (tab)

intro riff./piano (aj na gitare je to veľmi pôsobivé)

Ami F G C Ami F G Ami
e|---------------------------|------------------------|
H|---------------------------|------------------------|
G|--------9-7----------------|--------9-7-------------|
D|-7-9-10-----10-9------10-9-|-7-9-10-----10-9----9-7-|
A|-----------------10-7------|-----------------10-----|
E|---------------------------|------------------------|

Ami F G C Ami F G Ami
e|---------------------------|-------------------------|
H|---------------------------|-------------------------|
G|--------9-7----------------|--------9-7------------9-|
D|-7-9-10-----10-9------10-9-|-7-9-10-----10-9----9-10-|
A|-----------------10-7------|-----------------10------|
E|---------------------------|-------------------------|

riff.1
Ami F Ami F Ami F Ami D
e|---------------|-------------|---------------|-------------|
H|---------------|-------------|---------------|-------------|
G|---------------|-------------|---------------|-------------|
D|---------------|-------------|---------------|---------4-4-|
A|-3-3-2-5-3-2-0-|-3-3-2-5-7-7-|-3-3-2-5-3-2-0-|-3-3-2-5-----|
E|---------------|-------------|---------------|-------------| end intro

verse1/acustic guitar  
Keď budeš [Ami]cítiť, že [F]život s tebou [G]zame[C]tá
Keď [Ami]ťa budú [F]chcieť do klubu [B]posledných[F]
Vieš, [Ami]kde ma môžeš [F]nájsť, budem [G]práve [C]tam
[Ami]Kde som čakal [F]toľko prázdnych [B]dní[F]

verse2/acustic guitar
Kúpim Ti [Ami]pivo, alebo [F]teplé [G]gaštany[C]
A [Ami]súmrak sa [F]rozletí na [B]kŕdeľ [F]vrán
Poviem Ti: [Ami]pozri vzducho[F]loď horí nad[G] nami[C]
Príď[Ami] tam k [F]opusteným [B]lavičkám[F]

fill.1
e|-------|
H|-------|(keď sa zhrá akord C5 naposledy,
G|-5-----| tak sa ukazovákom skĺzne na H)
D|-5-----|
A|-3-/-2-|
E|-------|

®: Držím Ti [A5]miesto, teraz už [F5]vieš to, [G5]nemusíš sa [C5]báť [fill.1]
Držím Ti [A5]miesto, nie je to [F5]gesto, ako [G5]toľko [A5]krát
+ riff.1(1/2) ...oooh!
(v pozadí refrénu sa hraje intro riff.)

verse3/electric guitar
Rozsvietim s [A5]tebou sedemnásť[F5] smutných [G5]zápaliek[C5]
Keď sa [A5]nemôžeš [F5]vylízať [B5]z rán a [F5]krívd
Kúpim ti [A5]v malej trafike[F5] lacno [G5]dávny [C5]smiech
Nemusíš[A5] nič [F5]vysvetľovať, [B5]príď [F5]!

®: Držím Ti [A5]miesto, teraz už [F5]vieš to, [G5]nemusíš sa [C5]báť [fill.1] | 3x
   Držím Ti [A5]miesto, nie je to [F5]gesto, ako [G5]toľko [A5]krát | repeat
-v refréne pri 2. a 3. opakovaní sú zbory: na, na , na...
(spievajú hlavnú melódiu z intra).

solo: hold
e|--------------------------------|--------------------------------------|
H|*------------------------------*|-10br--prvý krát sa refrénovo--10-10/-|
G|-----------7--------------------|-------spieva na, na, na--------------|
D|--7~-10~-9---10-9-7--7~---------|--------------------------------------|
A|*-----------------------8~-10~-*|--------------------------------------|
E|--------------------------------|--------------------------------------|

- na, na, na... až do fade out podľa refrénu.

# Ak ste našli nejakú chybu pošlite mi mail na: mochti@post.sk #

 
»
Tvoje obľúbené položky
Tvoje obľúbené položky
»
Najnovšie videá
Najnovšie videá

»
Tvoje obľúbené piesne
Tvoje obľúbené piesne
»
Najnavštevovanejšie piesne
Najnavštevovanejšie piesne
Držím ti miesto - akordy a text

Reklama na ticho - akordy a text

Krátke lásky - akordy a text

Je to vo hviezdach - akordy a text

Jeden kabát jedna koža jedna tvár - akordy a text

Mám na teba chuť - akordy a text

Severanka - akordy a text

Som v tom - akordy a text

Reklama na ticho - akordy a text

Pieseň pre nesmelých - akordy a text

Láska necestuj tým vlakom - akordy a text

Čo s tým - akordy a text

Boli sme raz milovaní - text

Miesto (Kde spávajú vtáci) - akordy a text

Budem ťa chrániť - akordy a text

Beh - akordy a text

Kým ťa mám - text

Držím ti miesto-Sólo - taby

Lietam v tom tiež (Prichytený pri živote) - text

Nároční - akordy a text

viac

»
Nové albumy interpreta
Nové albumy interpreta



home | interpreti | register piesní | cd & dvd shop | pripomienky/nápady | kontakt | ochrana údajov | inzercia