Daniel Landa


piesne (308)

  texty (218)
  akordy (131)
  taby (51)
  preklady (15)


články (259)
Fotky (30)
diskusia
videá
diskografia
v obchode
odkazy
koncerty
sťahuj



pridaj vlastný článok

Daniel Landa:
DANIEL LANDA vydáva skladbu UKOLÉBAVKA, možný prísľub nového albumu - DANIEL LANDA vydáva skladbu UKOLÉBAVKA, možný prísľub nového albumu Daniel Landa ... - rocker.sk


Chinaski:
Nové klipy nabízejí Vypsaná fixa, Landa, Müller nebo Chinaski - Aktualizace: 29.05.2020 16:04 Vydáno: 29.05.2020, 16:04 foto Ilustrační foto - Skupi... - ceskenoviny.cz


Daniel Landa:
Daniel Landa se snaží "Ukolébavkou" společnost probudit - Vydáno: 23.05.2020 19:16 v sekci Audio - Ondřej Hricko | foto: Michal Horka SDÍLET: ... - musicserver.cz


Daniel Landa:
Daniel Landa ide do boja A TOTO radí všetkým! - pred 2 dňami Topstar.sk HudbaREDAKCIA/PKDaniel Landa ide do boja! A TOTO radí všetkým... - noviny.sk


Daniel Landa:
Daniel Landa v novém singlu marně volá: "Hoří horizont" - musicserver.cz


Daniel Landa:
Daniel Landa: Smyslem života je vnitřní mír - novinky.cz


Daniel Landa:
Daniel Landa oslaví padesátiny koncerty ve velkých halách - ceskenoviny.cz


Daniel Landa:
Dan Landa přiznal: Bojuji s finančním úřadem Kvůli Žitovi… - blesk.cz


Daniel Landa:
Krysař sa vrátil do Divadla Kalich v Prahe - R.Tomášová


Krysař:
Muzikál Krysař se vrátil v novém provedení - novinky.cz


 

Daniel Landa

Fanúšikov: 4



A B C Č D E F G H CH I J K L Ľ M N O P Q R S Š T U V W X Y Z Ž



ako:
Daniel Landa - Kouzelník (basa)
Daniel Landa - Kouzelník (basa)

tlač

edituj
Pesničku videlo 3539 návštevníkov.

Kvalita tabov : bez hodnotenia
Hodnotilo ľudí: 0 ohodnoť aj ty

intro:

3x ----------- 2x -----------
----------- -----------
-7-6-5-4--- -7---5-----
----------- ---7-------

sloka:


2x ----------------------------------------------------------------------
----------------------------------------------------------------------
------------5-7----5-7----5-------5-5-6-7----5-7----5-----------------
-5-0-5-7--7------7------7---5-0-5----------7------7-------------------

refrén:


----------------------------------------------------------------------
-------------3-4-5-7-9-7-5-4------------------------------------------
---------5-7-----------------7-5---------------5--7-6-5-4-------------
-5-7-8-5-------------------------8-7-5-3-7-6-5------------------------


----------------------------------------------------------------------
-------------4---5-7-5-4----------------------------------------------
-------3-5-7---5---------7-5---------------5-9------7-6-5-4-7-6-5-4---
-5-3-5-----------------------8-7-5-3-5-6-7-----7----------------------

bim bam:


----------------------------------------------------------------------
---5-4--------4-5-----5-4---------------------------------------------
-7-----5----7-------7-----5-7---5-7---5-------------------------------
----------7--------7----------7-----7---------------------------------


Odposloucháno od tohoto týpka: https://www.youtube.com/watch?v=nrnZ1ypSZx8


 
»
Tvoje obľúbené položky
Tvoje obľúbené položky
»
Najnovšie videá
Najnovšie videá

»
Tvoje obľúbené piesne
Tvoje obľúbené piesne
»
Najnavštevovanejšie piesne
Najnavštevovanejšie piesne
Andílek - akordy a text

Tajemství - akordy a text

Morituri te salutant - akordy a text

Tacho - akordy a text

Valčík - akordy a text

Ona - akordy a text

Pozdrav z fronty - akordy a text

1938 - akordy a text

Protestsong správně - akordy a text

Třista z místa - akordy a text

Touha - akordy a text

Malá díra v hlavě - akordy a text

Pozdrav Z Fronty - akordy a text

Jó ulice - akordy a text

Zombice - akordy a text

Ukolébavka - akordy a text

Sen (Krysař) - akordy

Bílá Hora - akordy a text

Šance - akordy a text

Holky a mašiny - akordy a text

viac

»
Nové albumy interpreta
Nové albumy interpreta



home | interpreti | register piesní | cd & dvd shop | pripomienky/nápady | kontakt | ochrana údajov | inzercia