Eric Clapton


piesne (157)

  texty (99)
  akordy (70)
  taby (40)
  preklady (13)


články (158)
Fotky (6)
diskusia
videá
diskografia
v obchode
odkazy
koncerty
sťahuj



pridaj vlastný článok

Eric Clapton:
RECENZE: Eric Clapton vydal akustické lockdownové album - Deska The Lady In The Balcony s podtitulem Lockdown Sessions je výsledkem loňského lo... - novinky.cz


Jeff Beck:
Zakk Wylde je zpět u Ozzyho Osbourna. Kytarové party natáčí na celou novou
desku Prince temnot
- O tom, že Ozzy Osbourne zlanařil na svou připravovanou sólovku kytarovou elitu, jsme ... - musicserver.cz


Jeff Beck:
Ozzy Osbourne chystá nové album, pracuje na něm s hvězdnými kytaristy
Beckem, Claptonem a dalšími
- Ozzy Osbourne aktuálně nahrává své nové sólové album a jak se nechal slyšet, pod... - IREPORT


Eric Clapton:
Eric Clapton má nový videoklip s Vanem Morrisonem - Eric Clapton a Van Morrison se spojili, aby vydali nový klip a novou verzi Claptonova ... - novinky.cz


Eric Clapton:
Eric Clapton připravil akustické album 'Lady In The Balcony: Lockdown
Sessions'
- Akustický živák "MTV Unplugged" se stal jednou z komerčně nejúspěšnějších dese... - musicserver.cz


Eric Clapton:
VIDEO: Frustrovaný Eric Clapton v singlu 'It Has Gotta Stop' křičí:
'Tohle musí skončit!'
- Eric Clapton na sebe nedávno upozornil prohlášením, že odmítá koncertovat na míst... - musicserver.cz


Joe Bonamassa:
Legendární setkání - Joe Bonamassa, Tommy Emmanuel, Josh Smith - Blues Alive
at sea
- To, že třeba za G3 stojí Joe Satriani, to, že kupříkladu za Crossroads Guitar Festi...


Chicago:
Legendární setkání - Sweet Home Chicago - Psal se rok 2007 a v Toyota Parku v Bridgeview v Illinois se uskutečnil již druhý roč...


Jeff Beck:
Legendární setkání - Eric Clapton + Jeff Beck + Jimmy Page - Dnešním číslem pokračujeme v sérii Legendární setkání, ve které se soustředí...


Jeff Beck:
Eric Clapton, Jeff Beck, Sheryl Crow či Buddy Guy na Crossroads - Crossroads Guitar Festival je projekt Erika Claptona, který zve pravidelně své slavné... - novinky.cz


 

Eric Clapton

Fanúšikov: 2



A B C Č D E F G H CH I J K L Ľ M N O P Q R S Š T U V W X Y Z Ž



ako:
Eric Clapton - Cocaine - Rytmus, Solo, Bass
Eric Clapton - Cocaine - Rytmus, Solo, Bass

tlač

edituj
Pesničku videlo 4049 návštevníkov.

Kvalita tabov : bez hodnotenia
Hodnotilo ľudí: 0 ohodnoť aj ty
guitar 1

E||------------------------|------------------|-----------------------|
B||------------------x-----|------------------|-----------------------|
G||--9--9--7--9------x--7--|------------------|--9--9--7--9--------7--|
D||--9--9--7--9------x--7--|------------------|--9--9--7--9--------7--|
A||--7--7--5--7---------5--|------------------|--7--7--5--7--------5--|
E||------------------------|------------------|-----------------------|



------------------|------------------------|------------------|
------------------|------------------x-----|------------------|
------------------|--9--9--7--9------x--7--|------------------|
------------------|--9--9--7--9------x--7--|------------------|
------------------|--7--7--5--7---------5--|------------------|
------------------|------------------------|------------------|



------------------------|------------------|-----------------------|
------------------x-----|------------------|-----------------------|
--9--9--7--9------x--7--|------------------|--9--9--7--9--------7--|
--9--9--7--9------x--7--|------------------|--9--9--7--9--------7--|
--7--7--5--7---------5--|------------------|--7--7--5--7--------5--|
------------------------|------------------|-----------------------|



------------------|------------------------|------------------|
------------------|------------------x-----|------------------|
------------------|--9--9--7--9------x--7--|------------------|
------------------|--9--9--7--9------x--7--|------------------|
------------------|--7--7--5--7---------5--|------------------|
------------------|------------------------|------------------|



-----------------------|------------------|-----------------------|
-----------------------|------------------|-----------------------|
--9--9--7--9--------7--|------------------|--9--9--7--9--------7--|
--9--9--7--9--------7--|------------------|--9--9--7--9--------7--|
--7--7--5--7--------5--|------------------|--7--7--5--7--------5--|
-----------------------|------------------|-----------------------|



-------------------|--------------------|-------------------|
-------------------|--------------------|-------------------|
----------------9--|--------7--------5--|----------4--------|
----------------9--|--------7--------5--|----------4--------|
----------------7--|--------5--------3--|----------2--------|
-------------------|--------------------|-------------------|



-----------------------|-----------------------|------------------------|
-----------------------|-----------------------|------------------------|
--9--9--7--9--------7--|----------7---x-7-x-7--|--9--9--7--9------x--7--|
--9--9--7--9--------7--|----------7---x-7-x-7--|--9--9--7--9------x--7--|
--7--7--5--7--------5--|----------5---x-5-x-5--|--7--7--5--7------x--5--|
-----------------------|-----------------------|------------------------|



------------------|-----------------------|------------------|
------------------|-----------------------|------------------|
------------------|--9--9--7--9--------7--|------------------|
------------------|--9--9--7--9--------7--|------------------|
------------------|--7--7--5--7--------5--|------------------|
------------------|-----------------------|------------------|



------------------------|------------------|-----------------------|
------------------x-----|------------------|-----------------------|
--9--9--7--9------x--7--|------------------|--9--9--7--9--------7--|
--9--9--7--9------x--7--|------------------|--9--9--7--9--------7--|
--7--7--5--7---------5--|------------------|--7--7--5--7--------5--|
------------------------|------------------|-----------------------|



------------------|-----------------------|-------------------|
------------------|-----------------------|-------------------|
------------------|--9--9--7--9--------7--|----------------9--|
------------------|--9--9--7--9--------7--|----------------9--|
------------------|--7--7--5--7--------5--|----------------7--|
------------------|-----------------------|-------------------|



--------------------|-------------------|-----------------------|
--------------------|-------------------|-----------------------|
--------7--------5--|----------4--------|--9--9--7--9--------7--|
--------7--------5--|----------4--------|--9--9--7--9--------7--|
--------5--------3--|----------2--------|--7--7--5--7--------5--|
--------------------|-------------------|-----------------------|



-----------------------|------------------------|------------------|
-----------------------|------------------------|------------------|
----------7---x-7-x-7--|--9--9--7--9------x--7--|------------------|
----------7---x-7-x-7--|--9--9--7--9------x--7--|------------------|
----------5---x-5-x-5--|--7--7--5--7------x--5--|------------------|
-----------------------|------------------------|------------------|



-----------------------|------------------|-----------------------|
-----------------------|------------------|-----------------------|
--9--9--7--9--------7--|------------------|--9--9--7--9--------7--|
--9--9--7--9--------7--|------------------|--9--9--7--9--------7--|
--7--7--5--7--------5--|------------------|--7--7--5--7--------5--|
-----------------------|------------------|-----------------------|



------------------|-----------------------|------------------|
------------------|-----------------------|------------------|
------------------|--9--9--7--9--------7--|------------------|
------------------|--9--9--7--9--------7--|------------------|
------------------|--7--7--5--7--------5--|------------------|
------------------|-----------------------|------------------|



-----------------------|------------------|-----------------------|
-----------------------|------------------|-----------------------|
--9--9--7--9--------7--|------------------|--9--9--7--9--------7--|
--9--9--7--9--------7--|------------------|--9--9--7--9--------7--|
--7--7--5--7--------5--|------------------|--7--7--5--7--------5--|
-----------------------|------------------|-----------------------|



------------------|-----------------------|------------------|
------------------|-----------------------|------------------|
------------------|--9--9--7--9--------7--|------------------|
------------------|--9--9--7--9--------7--|------------------|
------------------|--7--7--5--7--------5--|------------------|
------------------|-----------------------|------------------|



-----------------------|------------------|-----------------------|
-----------------------|------------------|-----------------------|
--9--9--7--9--------7--|------------------|--9--9--7--9--------7--|
--9--9--7--9--------7--|------------------|--9--9--7--9--------7--|
--7--7--5--7--------5--|------------------|--7--7--5--7--------5--|
-----------------------|------------------|-----------------------|



------------------|-----------------------|------------------|
------------------|-----------------------|------------------|
------------------|--9--9--7--9--------7--|------------------|
------------------|--9--9--7--9--------7--|------------------|
------------------|--7--7--5--7--------5--|------------------|
------------------|-----------------------|------------------|



-----------------------|------------------|-----------------------|
-----------------------|------------------|-----------------------|
--9--9--7--9--------7--|------------------|--9--9--7--9--------7--|
--9--9--7--9--------7--|------------------|--9--9--7--9--------7--|
--7--7--5--7--------5--|------------------|--7--7--5--7--------5--|
-----------------------|------------------|-----------------------



-------------------------|-----------------------|-------------------|
-------------------------|-----------------------|-------------------|
--1--1--0--1----------2--|-----------------------|-------------------|
--2--2--0--2------0-2-0--|----------------0---2--|-------------------|
-------------------------|----------2-2-2--------|-------------------|
-------------------------|-----------------------|--0----------------|



------------------|------------------------|--------------------|
------------------|------------------------|--------------------|
------------------|--1--1--0--1------1--2--|--------2--2--------|
------------------|--2--2--0--2------2--0--|-----------0--------|
------------------|------------------------|--------------------|
------------------|------------------------|--------------------|



------------------|------------------|----------------------------|
------------------|------------------|----------------------------|
------------------|------------------|------------------------0-2-|
------------------|------------------|--2--2--0--2--------0-2---0-|
------------------|------------------|----------------0-2---------|
------------------|------------------|----------------------------|



------------------|-------------------------|-------------------|
------------------|-------------------------|-------------------|
------------------|-------------------1--2--|------2------------|
------------------|--------0--0-2-----2--0--|------0------------|
------------------|--2--2-------------------|-------------------|
------------------|-------------------------|-------------------|



--------------------------|----------------------|------------------------|
--------------------------|----------------------|------------------------|
----------------------0-2-|----------7-----7-----|--1--1--0--1------1--2--|
2--2--0--2--------0-2---0-|----------5-7---7--5--|--2--2--0--2------2--0--|
--------------0-2---------|----------------------|------------------------|
--------------------------|----------------------|------------------------|


Cocaine


Eric Clapton
guitar 2




E||-----------------------|-------------------------------|---------------|
B||-----------------------|-------------------------------|---------------|
G||--9--9--7--9--------7--|-------------------------------|---------------|
D||--9--9--7--9--------7--|--------------------------0----|--0-2----------|
A||--7--7--5--7--------5--|----------0-2-0-2-0-2-0-2------|---------------|
E||-----------------------|-------------------------------|---------------|



-------------------------|-------------------|-------------------------|
-------------------------|-------------------|-------------------------|
-------------------------|-------------------|--7----------------------|
----0--------0-----------|--2----------------|----9---7----5--6--------|
--------0-2-----0--------|-------------------|-------------------7--5--|
-------------------3--0--|-------------------|-------------------------|



--------------------|-----------------------|-----------------------|
--------------------|-----------------------|-----------------x-----|
--------------------|-----------------------|----9--7--9------x--7--|
--------------------|-------0-0-------------|----9--7--9------x--7--|
--7------------7---|--0-2----0-------------|----7--5--7---------5--|
--------------------|--------------3b-------|-----------------------|



------------------|-----------------------|------------------|
------------------|-----------------------|------------------|
------------------|--9--9--7--9--------7--|------------------|
------------------|--9--9--7--9--------7--|------------------|
------------------|--7--7--5--7--------5--|------------------|
------------------|-----------------------|------------------|



-----------------------|------------------|-----------------------|
-----------------------|------------------|-----------------------|
--9--9--7--9--------7--|------------------|--9--9--7--9--------7--|
--9--9--7--9--------7--|------------------|--9--9--7--9--------7--|
--7--7--5--7--------5--|------------------|--7--7--5--7--------5--|
-----------------------|------------------|-----------------------|



-------------------|--------------------|-------------------|
-------------------|--------------------|-------------------|
----------------9--|--------7--------5--|----------4--------|
----------------9--|--------7--------5--|----------4--------|
----------------7--|--------5--------3--|----------2--------|
-------------------|--------------------|-------------------|



-----------------------|-----------------------|------------------------|
-----------------------|-----------------------|------------------------|
--9--9--7--9--------7--|----------7---x-7-x-7--|--9--9--7--9------x--7--|
--9--9--7--9--------7--|----------7---x-7-x-7--|--9--9--7--9------x--7--|
--7--7--5--7--------5--|----------5---x-5-x-5--|--7--7--5--7------x--5--|
-----------------------|-----------------------|------------------------|



------------------|-----------------------|------------------|
------------------|-----------------------|------------------|
------------------|--9--9--7--9--------7--|------------------|
------------------|--9--9--7--9--------7--|------------------|
------------------|--7--7--5--7--------5--|------------------|
------------------|-----------------------|------------------|



------------------------|------------------|-----------------------|
------------------x-----|------------------|-----------------------|
--9--9--7--9------x--7--|------------------|--9--9--7--9--------7--|
--9--9--7--9------x--7--|------------------|--9--9--7--9--------7--|
--7--7--5--7---------5--|------------------|--7--7--5--7--------5--|
------------------------|------------------|-----------------------|



------------------|-----------------------|-------------------|
------------------|-----------------------|-------------------|
------------------|--9--9--7--9--------7--|----------------9--|
------------------|--9--9--7--9--------7--|----------------9--|
------------------|--7--7--5--7--------5--|----------------7--|
------------------|-----------------------|-------------------|



--------------------|-------------------|-----------------------|
--------------------|-------------------|-----------------------|
--------7--------5--|----------4--------|--9--9--7--9--------7--|
--------7--------5--|----------4--------|--9--9--7--9--------7--|
--------5--------3--|----------2--------|--7--7--5--7--------5--|
--------------------|-------------------|-----------------------|



-----------------------|------------------------|------------------|
-----------------------|------------------------|------------------|
----------7---x-7-x-7--|--9--9--7--9------x--7--|------------------|
----------7---x-7-x-7--|--9--9--7--9------x--7--|------------------|
----------5---x-5-x-5--|--7--7--5--7------x--5--|------------------|
-----------------------|------------------------|------------------|



-----------------------|------------------|-----------------------|
-----------------------|------------------|-----------------------|
--9--9--7--9--------7--|------------------|--9--9--7--9--------7--|
--9--9--7--9--------7--|------------------|--9--9--7--9--------7--|
--7--7--5--7--------5--|------------------|--7--7--5--7--------5--|
-----------------------|------------------|-----------------------|



------------------|-----------------------|------------------|
------------------|-----------------------|------------------|
------------------|--9--9--7--9--------7--|------------------|
------------------|--9--9--7--9--------7--|------------------|
------------------|--7--7--5--7--------5--|------------------|
------------------|-----------------------|------------------|



-----------------------|------------------|-----------------------|
-----------------------|------------------|-----------------------|
--9--9--7--9--------7--|------------------|--9--9--7--9--------7--|
--9--9--7--9--------7--|------------------|--9--9--7--9--------7--|
--7--7--5--7--------5--|------------------|--7--7--5--7--------5--|
-----------------------|------------------|-----------------------|



------------------|-----------------------|------------------|
------------------|-----------------------|------------------|
------------------|--9--9--7--9--------7--|------------------|
------------------|--9--9--7--9--------7--|------------------|
------------------|--7--7--5--7--------5--|------------------|
------------------|-----------------------|------------------|



-----------------------|------------------|-----------------------|
-----------------------|------------------|-----------------------|
--9--9--7--9--------7--|------------------|--9--9--7--9--------7--|
--9--9--7--9--------7--|------------------|--9--9--7--9--------7--|
--7--7--5--7--------5--|------------------|--7--7--5--7--------5--|
-----------------------|------------------|-----------------------|



------------------|-----------------------|------------------|
------------------|-----------------------|------------------|
------------------|--9--9--7--9--------7--|------------------|
------------------|--9--9--7--9--------7--|------------------|
------------------|--7--7--5--7--------5--|------------------|
------------------|-----------------------|------------------|



-----------------------|------------------|-----------------------|
-----------------------|------------------|-----------------------|
--9--9--7--9--------7--|------------------|--9--9--7--9--------7--|
--9--9--7--9--------7--|------------------|--9--9--7--9--------7--|
--7--7--5--7--------5--|------------------|--7--7--5--7--------5--|
-----------------------|------------------|-----------------------|



------------------|-----------------------|------------------|
------------------|-----------------------|------------------|
------------------|--9--9--7--9--------7--|------------------|
------------------|--9--9--7--9--------7--|------------------|
------------------|--7--7--5--7--------5--|------------------|
------------------|-----------------------|------------------|



-----------------------|------------------|-----------------------|
-----------------------|------------------|-----------------------|
--9--9--7--9--------7--|------------------|--9--9--7--9--------7--|
--9--9--7--9--------7--|------------------|--9--9--7--9--------7--|
--7--7--5--7--------5--|------------------|--7--7--5--7--------5--|
-----------------------|------------------|-----------------------|



------------------|-----------------------|-------------------|
------------------|-----------------------|-------------------|
------------------|--9--9--7--9--------7--|----------------9--|
------------------|--9--9--7--9--------7--|----------------9--|
------------------|--7--7--5--7--------5--|----------------7--|
------------------|-----------------------|-------------------|



--------------------|-------------------|-----------------------|
--------------------|-------------------|-----------------------|
--------7--------5--|----------4--------|--9--9--7--9--------7--|
--------7--------5--|----------4--------|--9--9--7--9--------7--|
--------5--------3--|----------2--------|--7--7--5--7--------5--|
--------------------|-------------------|-----------------------|



------------------|-----------------------|-------------------|
------------------|-----------------------|-------------------|
------------------|--9--9--7--9--------7--|----------------9--|
------------------|--9--9--7--9--------7--|----------------9--|
------------------|--7--7--5--7--------5--|----------------7--|
------------------|-----------------------|-------------------|



--------------------|-------------------|-----------------------|
--------------------|-------------------|-----------------------|
--------7--------5--|----------4--------|--9--9--7--9--------7--|
--------7--------5--|----------4--------|--9--9--7--9--------7--|
--------5--------3--|----------2--------|--7--7--5--7--------5--|
--------------------|-------------------|-----------------------|



------------------|-----------------------|------------------|
------------------|-----------------------|------------------|
------------------|--9--9--7--9--------7--|------------------|
------------------|--9--9--7--9--------7--|------------------|
------------------|--7--7--5--7--------5--|------------------|
------------------|-----------------------|------------------|



-----------------------|------------------|-----------------------|
-----------------------|------------------|-----------------------|
--9--9--7--9--------7--|------------------|--9--9--7--9--------7--|
--9--9--7--9--------7--|------------------|--9--9--7--9--------7--|
--7--7--5--7--------5--|------------------|--7--7--5--7--------5--|
-----------------------|------------------|-----------------------|



------------------|-----------------------|------------------|
------------------|-----------------------|------------------|
------------------|--9--9--7--9--------7--|------------------|
------------------|--9--9--7--9--------7--|------------------|
------------------|--7--7--5--7--------5--|------------------|
------------------|-----------------------|------------------|



-----------------------|------------------|-----------------------|
-----------------------|------------------|-----------------------|
--9--9--7--9--------7--|------------------|--9--9--7--9--------7--|
--9--9--7--9--------7--|------------------|--9--9--7--9--------7--|
--7--7--5--7--------5--|------------------|--7--7--5--7--------5--|
-----------------------|------------------|-----------------------|



------------------|-----------------------||
------------------|-----------------------||
------------------|--9--9--7--9--------7--||
------------------|--9--9--7--9--------7--||
------------------|--7--7--5--7--------5--||
------------------|-----------------------||

Cocaine
solo1


-----------------------|-------------------------|-----------------------|
-----------------------|-------------------------|--------8--8b----------|
-------7--9~-------12b-|------9-7-9--7-9~--9--7--|--9--9----------9~-----|
----9------------------|-------------------------|-----------------------|
-----------------------|-------------------------|-----------------------|
-----------------------|-------------------------|-----------------------|



--------------------|------------------------|--------------------------|
--------------12----|--12----12----------12--|------12----12----12---12-|
--------------14b---|--14b---14b---------14b-|------14r---14----14------|
--------------------|------------------------|--------------------------|
--------------------|------------------------|--------------------------|
--------------------|------------------------|--------------------------|



----------------------------------|-------------12---------------------|
----------------------------------|----------------15-12---------------|
--14b-12--------------------------|------14-14b----------14b14-12--14b-|
----------14--14--12-14---14--12--|------------------------------------|
----------------------------------|------------------------------------|
----------------------------------|------------------------------------|



----------------------------|-----------12-12------------------------|
----------------------------|--------12----15-12-----------------12--|
----12b---------------------|-----14b------------14b14-12----14b-----|
--------14--14--12----14----|-----------------------------14---------|
----------------------------|----------------------------------------|
----------------------------|----------------------------------------|



--------------------------------|----12------------------------------|
--15--15--15--15--15--12--------|-------15--15--15--12-----12--------|
----------14b-14b-14--12--------|-----------14b-14r-12-----12--------|
--------------------------14----|----------------------14------14p12-|
--------------------------------|------------------------------------|
--------------------------------|------------------------------------|



------------------------------|----------------------------------------|
---------------12---12--------|----------------------------------------|
--------12-12--12---12--------|---------12-----12--12----12--12--------|
--14~---12-14-----------14----|---------12-----12--12----12--14p12-14--|
------------------------------|--12-14------14--------14---------------|
------------------------------|----------------------------------------|



--------------------------------|----12-----12-----12-12--12-12--12--|
----------12--14b-14--12--------|-------15b----15b----15b----15b-----|
----------12--14b-14--12--------|------------------------------------|
--14--14------------------14~---|------------------------------------|
--------------------------------|------------------------------------|
--------------------------------|------------------------------------|



--12--12--12~---------12---12-------|
--15b-15b-----15b-15b---------15-12-|
------------------------------------|
------------------------------------|
------------------------------------|
------------------------------------|



--------------------------------------------|------------------|
--------------------------------------------|------------------|
--14b14-12----12-14-14b14--12-14-14b-12-----|------------------|
-----------14---------------------------14--|------------------|
--------------------------------------------|------------------|
--------------------------------------------|------------------|



------------------------------------------|
------------------------------------------|
--------12----14r-12----14-12-----12------|
--12-14----14--------14-------14------14--|
------------------------------------------|
------------------------------------------|



--------------12------------------------|--------------------------------|
-----------12----15p12-14r-12-14-12-----|--------------------------------|
----14b-14b-------------------------14--|------------------12-----------|
----------------------------------------|---12-----12--14--12-----------|
----------------------------------------|---12-14----------------10--12--|
----------------------------------------|--------------------------------|



------------------|------------------|------------------|-----------------|
------------------|------------------|------------------|-----------------|
------------------|------------------|------------------|-----------------|
------------------|------------------|------------------|-----------------|
------------------|------------------|------------------|-----------------|
------------------|------------------|------------------|-----------------|



------------------|------------------|------------------|-----------------|
------------------|------------------|------------------|-----------------|
------------------|------------------|------------------|-----------------|
------------------|------------------|------------------|-----------------|
------------------|------------------|------------------|-----------------|
------------------|------------------|------------------|-----------------|



------------------|------------------|------------------|-----------------|
------------------|------------------|------------------|-----------------|
------------------|------------------|------------------|-----------------|
------------------|------------------|------------------|-----------------|
------------------|------------------|------------------|-----------------|
------------------|------------------|------------------|-----------------|



------------------|------------------|------------------|-----------------|
------------------|------------------|------------------|-----------------|
------------------|------------------|------------------|-----------------|
------------------|------------------|------------------|-----------------|
------------------|------------------|------------------|-----------------|
------------------|------------------|------------------|-----------------|



------------------|------------------|--------------------------|
------------------|------------------|----5-------5-------------|
------------------|------------------|----6--7--6-7--9----7--9--|
------------------|------------------|--------------------------|
------------------|------------------|--------------------------|
------------------|------------------|--------------------------|



---------------------|--------------------------|-------------------------|
---------------------|----------15--15------15--|-------------------------|
-----7-7--------7/---|------------------16------|--16----14--12-----------|
---------------------|--------------------------|------------------14----|
---------------------|--------------------------|-------------------------|
---------------------|--------------------------|-------------------------|



---------------------|---------------------|-------------------------|
------5----5----5----|------5---------5----|----------5---5------5---|
------7b---7b---7b---|------7r------7------|------7-9----------7-----|
---------------------|---------------------|-------------------------|
---------------------|---------------------|-------------------------|
---------------------|---------------------|-------------------------|



---------------3----------|---------------------------|
--53---3----0------------|---------------------------|
-------------------2-0----|---------------------------|
-----------------------2--|------------0-2-0-2--2--0--|
--------------------------|------0-2-2----------------|
--------------------------|---------------------------|



-------------------------|---------------------|--------------------------|
-------------------------|------------------3--|---3-------3---3----------|
-----------------0-------|-----1---------------|---------4---4---42-0----|
----------0--------------|-----2---------------|------------------------2-|
----0-2------0-2---------|---------------------|--------------------------|
----------------------3b-|--0------------------|--------------------------|



------------------------||
------------------------||
--------------------0---||
-----2--0--2----------2-||
------------------------||
--0---------------------||


Cocaine


Eric Clapton
solo2




E||------------------|------------------|------------------|--------------|
B||------------------|------------------|------------------|--------------|
G||------------------|------------------|------------------|--------------|
D||------------------|------------------|------------------|--------------|
A||------------------|------------------|------------------|--------------|
E||------------------|------------------|------------------|--------------|



------------------|------------------|------------------|-----------------|
------------------|------------------|------------------|-----------------|
------------------|------------------|------------------|-----------------|
------------------|------------------|------------------|-----------------|
------------------|------------------|------------------|-----------------|
------------------|------------------|------------------|-----------------|



------------------|------------------|------------------|-----------------|
------------------|------------------|------------------|-----------------|
------------------|------------------|------------------|-----------------|
------------------|------------------|------------------|-----------------|
------------------|------------------|------------------|-----------------|
------------------|------------------|------------------|-----------------|



------------------|------------------|------------------|-----------------|
------------------|------------------|------------------|-----------------|
------------------|------------------|------------------|-----------------|
------------------|------------------|------------------|-----------------|
------------------|------------------|------------------|-----------------|
------------------|------------------|------------------|-----------------|



------------------|------------------|------------------|-----------------|
------------------|------------------|------------------|-----------------|
------------------|------------------|------------------|-----------------|
------------------|------------------|------------------|-----------------|
------------------|------------------|------------------|-----------------|
------------------|------------------|------------------|-----------------|



------------------|------------------|------------------|-----------------|
------------------|------------------|------------------|-----------------|
------------------|------------------|------------------|-----------------|
------------------|------------------|------------------|-----------------|
------------------|------------------|------------------|-----------------|
------------------|------------------|------------------|-----------------|


------------------|------------------|------------------|-----------------|
------------------|------------------|------------------|-----------------|
------------------|------------------|------------------|-----------------|
------------------|------------------|------------------|-----------------|
------------------|------------------|------------------|-----------------|
------------------|------------------|------------------|-----------------|



------------------|------------------|------------------|-----------------|
------------------|------------------|------------------|-----------------|
------------------|------------------|------------------|-----------------|
------------------|------------------|------------------|-----------------|
------------------|------------------|------------------|-----------------|
------------------|------------------|------------------|-----------------|



------------------|------------------|------------------|-----------------|
------------------|------------------|------------------|-----------------|
------------------|------------------|------------------|-----------------|
------------------|------------------|------------------|-----------------|
------------------|------------------|------------------|-----------------|
------------------|------------------|------------------|-----------------|



------------------|------------------|------------------|-----------------|
------------------|------------------|------------------|-----------------|
------------------|------------------|------------------|-----------------|
------------------|------------------|------------------|-----------------|
------------------|------------------|------------------|-----------------|
------------------|------------------|------------------|-----------------|



------------------|------------------|------------------|-----------------|
------------------|------------------|------------------|-----------------|
------------------|------------------|------------------|-----------------|
------------------|------------------|------------------|-----------------|
------------------|------------------|------------------|-----------------|
------------------|------------------|------------------|-----------------|



------------------|------------------|------------------|-----------------|
------------------|------------------|------------------|-----------------|
------------------|------------------|------------------|-----------------|
------------------|------------------|------------------|-----------------|
------------------|------------------|------------------|-----------------|
------------------|------------------|------------------|-----------------|



------------------|------------------|----------------------------|
------------------|------------------|----------------------------|
------------------|------------------|----14b--14b--14r---12------|
------------------|------------------|------------------------14--|
------------------|------------------|----------------------------|
------------------|------------------|----------------------------|



----------------------------|--------------------------------|
----------------------------|----15b-15r-12-----15-----------|
----------------------------|---------------14b----14r-12b---|
------12-14---14~---12-14---|--------------------------------|
----------------------------|--------------------------------|
----------------------------|--------------------------------|



--------------------------------|----------------------------------|
----15--------------------------|----------------------------------|
-------14b-14b-14--12-14r---16--|--12b-------------12--------------|
--------------------------------|--------14-12-14-----14--12---14--|
--------------------------------|----------------------------------|
--------------------------------|----------------------------------|



--------------------------------|--------------------------------------|
--------------------------------|--------------------------------------|
----14b-14r---12--14-12-14b-12--|-----------------12--12---------------|
--------------------------------|---14--12-14--14--------14p12-14--12--|
--------------------------------|--------------------------------------|
--------------------------------|--------------------------------------|



--------------------|------------------|------------------|---------------|
--------------------|------------------|------------------|---------------|
--------------------|------------------|------------------|---------------|
--14~---------------|------------------|------------------|---------------|
--------------------|------------------|------------------|---------------|
--------------------|------------------|------------------|---------------|






Cocaine


Eric Clapton
Bass




G||------------------------|-------------------------|
D||--2---------------0--2--|--0----------------0-----|
A||------------------------|-------------0-----------|
E||------------------------|-------------------------|



-----------------------------|--------------------------|
--2---------------2----0--2--|--0----------------0------|
------------2----------------|-------------0------------|
-----------------------------|--------------------------|



------------------------|-------------------------|-----------------------|
--2---------------2-----|--0---------------0------|--2---------------2----|
------------2-----------|------------0------------|------------2----------|
------------------------|-------------------------|-----------------------|



-------------------------|---------------------------|-------------------------|
--0----------------0-----|--2---------------2--------|--0----------------0-----|
-------------0-----------|------------2---------2----|-------------0-----------|
-------------------------|---------------------------|-------------------------|



--------------------------------|--------------------------|
--2-------2----------2----0--2--|--0----------------0------|
---------------2----------------|-------------0------------|
--------------------------------|--------------------------|



-------------------------------|-------------------------|
--2-------2----------2---0--2--|--0----------------0-----|
---------------2---------------|-------------0-----------|
-------------------------------|-------------------------|



----------------------------|---------------------------|----------------------|
--2--------------2----------|--0----------------0----2--|--------0-------------|
-----------2----------3--4--|-------------0-------------|-------------------3--|
----------------------------|---------------------------|----------------------|



-----------------------|-------------------------|---------------------------|
-----------------------|--2----------------0--2--|--0---------0--------0-----|
------------2----------|-------------------------|---------------0-----------|
-----------------------|-------------------------|---------------------------|



----------------------------|-------------------------|
--2---------------2---0--2--|--0----------------0-----|
------------2---------------|-------------0-----------|
----------------------------|-------------------------|



-----------------------------|-------------------------|
--2----------------2---------|--0----------------0-----|
------------2-----------2----|-------------0-----------|
-----------------------------|-------------------------|



-----------------------------|---------------------------|
--2-------2------------0--2--|--0------------------0--1--|
---------------2-------------|-------------0-------------|
-----------------------------|---------------------------|



--------------------------|---------------------------|
--2---------------2-------|--0------------------0--1--|
------------2---------2---|-------------0-------------|
--------------------------|---------------------------|



------------------------------|-----------------------|----------------------|
--2----------------2----0--2--|--0-----------------2--|--------0-------------|
-------------2----------------|------------0----------|-------------------3--|
------------------------------|-----------------------|----------------------|



-----------------------|----------------------------|-------------------------|
-----------------------|--2-------------------0--2--|--0----------------0-----|
------------2----------|-------------2--------------|-------------0-----------|
-----------------------|----------------------------|-------------------------|



---------------------------|-------------------------|----------------------|
--2------------------0--2--|--0----------------0-----|--2-------------------|
------------2--------------|-------------0-----------|------------2---------|
---------------------------|-------------------------|----------------------|



------------------------|---------------------------|------------------------|
--0---------------0-----|--2-------2----------2-----|--0---------------0-----|
------------0-----------|---------------2-----------|------------0-----------|
------------------------|---------------------------|------------------------|



-----------------------|-----------------------|--------------------------|
--2--------------2-----|--0--------------0-----|--2--------------2--------|
-----------2-----------|-----------0-----------|-----------2---------2----|
-----------------------|-----------------------|--------------------------|



----------------------------|-------------------------|-----------------------|
--0--------------------0----|--2--------------2-------|--0--------------0-----|
-----------0-----0--2-------|-----------2---------2---|-----------0-----------|
----------------------------|-------------------------|-----------------------|



------------------------|-------------------------|-------------------------|
--2--------------2------|--0-----------------0----|--2--------------2-------|
-----------2------------|-------------0-----------|-----------2---------2---|
------------------------|-------------------------|-------------------------|



------------------------------|--------------------------|
--0----------------------0----|--2--------------2-----0--|
-------------0-----0--2-------|-----------2--------------|
------------------------------|--------------------------|



-------------------------------|--------------------|-----------------------|
--0-----------------------0----|--2-----------------|--0--------------0-----|
-------------0------0--2-------|-----------2--------|-----------0-----------|
-------------------------------|--------------------|-----------------------|



------------------------|-------------------------|-------------------------|
--2--------------2------|--0----------------0-----|--2---------------2------|
-----------2------------|-------------0-----------|------------2------------|
------------------------|-------------------------|-------------------------|



------------------------------|---------------------------|
--0----------------------0----|--2---------------2--------|
-------------0-----0--2-------|------------2---------2----|
------------------------------|---------------------------|



-------------------------|--------------------------------|
--0----------------0-----|--2-------2----------2----0--2--|
-------------0-----------|---------------2----------------|
-------------------------|--------------------------------|



--------------------------|-------------------------------|
--0----------------0------|--2-------2----------2---0--2--|
-------------0------------|---------------2---------------|
--------------------------|-------------------------------|



-------------------------|----------------------------|
--0----------------0-----|--2--------------2----0-----|
-------------0-----------|-----------2-------------4--|
-------------------------|----------------------------|



---------------------------|----------------------|-----------------------|
--0----------------0----2--|--------0-------------|-----------------------|
-------------0-------------|-------------------3--|------------2----------|
---------------------------|----------------------|-----------------------|



-----------------------------|--------------------------|
--2---------------2----0--2--|--0----------------0------|
------------2----------------|-------------0------------|
-----------------------------|--------------------------|



------------------------|---------------------------|----------------------|
--2---------------2-----|--0----------------0----2--|--------0-------------|
------------2-----------|-------------0-------------|-------------------3--|
------------------------|---------------------------|----------------------|



-----------------------|-----------------------------|-------------------------|
-----------------------|--2----------------2---------|--0----------------0-----|
------------2----------|------------2-----------2----|-------------0-----------|
-----------------------|-----------------------------|-------------------------|



-----------------------------|-------------------------|
--2-------2------------0--2--|--0----------------0-----|
---------------2-------------|-------------0-----------|
-----------------------------|-------------------------|



------------------------|-------------------------|-----------------------|
--2--------------2------|--0----------------0-----|--2--------------2-----|
-----------2------------|-------------0-----------|-----------2-----------|
------------------------|-------------------------|-----------------------|



-------------------------|------------------------|-------------------------|
--0----------------0-----|--2--------------2------|--0----------------0-----|
-------------0-----------|-----------2------------|-------------0-----------|
-------------------------|------------------------|-------------------------|



-------------------------|-------------------------|------------------------|
--2------2---------2-----|--0----------------0-----|--2--------------2------|
-------------2-----------|-------------0-----------|-----------2------------|
-------------------------|-------------------------|------------------------|



-------------------------|------------------------||
--0----------------0-----|--2--------------2------||
-------------0-----------|-----------2------------||
-------------------------|------------------------||

 
»
Tvoje obľúbené položky
Tvoje obľúbené položky
»
Najnovšie videá
Najnovšie videá

»
Tvoje obľúbené piesne
Tvoje obľúbené piesne
»
Najnavštevovanejšie piesne
Najnavštevovanejšie piesne
Tears in Heaven - akordy a text

Tears In Heaven - akordy a text

Tears In Heaven Jednoduchy - akordy a text

Layla - preklad

River Of Tears - preklad

I Shot The Sheriff - akordy a text

Tears In Heaven - akordy

Tears In Heaven (original) - text

Tears In Heaven - taby

Wonderful Tonight - akordy a text

Wonderful Tonight - Noty

Tears In Heaven - preklad

Tears In Heaven - Intro - taby

Wonderful Tonight - preklad

Old Love (Dávna láska) - preklad

Lay Down Sally - akordy a text

Bell Bottom Blues - akordy a text

Someone Like You - akordy a text

Promises - akordy a text

Alberta - akordy

viac

»
Nové albumy interpreta
Nové albumy interpreta



home | interpreti | register piesní | cd & dvd shop | pripomienky/nápady | kontakt | ochrana údajov | inzercia