A.f.i.


piesne (126)

  texty (108)
  akordy (1)
  taby (5)
  preklady (12)


články (1)
Fotky (81)
diskusia
videá
diskografia
v obchode
odkazy
koncerty
sťahuj



pridaj vlastný článok

A.f.i.:
Biografia :))


 

A.f.i.

Fanúšikov: 0



A B C Č D E F G H CH I J K L Ľ M N O P Q R S Š T U V W X Y Z Ž



ako:
A.f.i. - The Leaving Song Part Two
A.f.i. - The Leaving Song Part Two

tlač

edituj

export
agama

export
txt
Rok vzniku: 2006
V originále: A Fire Inside
Poznámka: dobra pesnicka

Pesničku videlo 3602 návštevníkov.

Kvalita akordov : bez hodnotenia
Hodnotilo ľudí: 0 ohodnoť aj ty
Transpozícia:   [+1 +2 -1 -2]   *** Autor textu: afi *** Autor hudby: afi
Akordy Eb Ab Db Gb Bb eb


Intro
T T T T T T T T T T T
eb|-------h14p10/14-----------19---------h14p10/14----------17/19-15---h14---h14h12-|
Bb|---20------------h15---------------20-----------h15---------------22---20--------|
Gb|--------------------h16--19------------------------h16--19-----------------------|
Db|---------------------------------------------------------------------------------|
Ab|19------------------------------19-----------------------------------------------|
Eb|---------------------------------------------------------------------------------|

Verse
eb|--------------------------------------------------------------------------|
Bb|--------------------------------------------------------------------------|
Gb|--12-------11-------9----9-9-9-9------12-------11-------9-----9-9-9-9-----|
Db|---x--------x-------x----x-x-x-x-------x--------x-------x-----x-x-x-x-----|
Ab|--10--------9-------7----7-7-7-7------10--------9-------7-----7-7-7-7-----|
Eb|---0-----0--0----0--0----0-0-0-0-0-0---0---0----0----0--0-----0-0-0-0-0-0-|

eb|---------------------------------------------------------------------------------|
Bb|---------------------------------------------------------------------------------|
Gb|-12-------14--/16--------16-16-16-16-16--------7---7-----7--7--------------------|
Db|--x--------x----x---------x--x--x--x--x--------7---7-----7--7-----5-5-5-5-/7-7-7-|
Ab|-10-------12--/14--------14-14-14-14-14---0-0--5---5-----5--5-----5-5-5-5-/7-7-7-|
Eb|--0----0---0--------0-----0--0--0--0--0---0-0--5---5-----5--5--0--3-3-3-3-/5-5-5-|

eb|--------------------------------------------------------------------------|
Bb|--------------------------------------------------------------------------|
Gb|--12-------11-------9----9-9-9-9------12-------11-------9-----9-9-9-9-----|
Db|---x--------x-------x----x-x-x-x-------x--------x-------x-----x-x-x-x-----|
Ab|--10--------9-------7----7-7-7-7------10--------9-------7-----7-7-7-7-----|
Eb|---0-----0--0----0--0----0-0-0-0-0-0---0---0----0----0--0-----0-0-0-0-0-0-|

eb|-------------------------------------------------------------------------------|
Bb|-------------------------------------------------------------------------------|
Gb|--12-------14--/16------16-16-16-16-16--------7----7---7--7--------------------|
Db|---x--------x----x-------x--x--x--x--x--------7----7---7--7-----5-5-5-5-/7-7-7-|
Ab|--10-------12--/14------14-14-14-14-14---0-0--5----5---5--5-----5-5-5-5-/7-7-7-|
Eb|---0----0---0--------0---0--0--0--0--0---0-0--5----5---5--5--0--3-3-3-3-/5-5-5-|

Pre-Chorus pre Gitara 1

eb|-12-12--12-15-15--15--14-14-14--10-10-10-14-14--12-12-12-12-12--15--15--15--15-|
Bb|-------------------------------------------------------------------------------|
Gb|-------------------------------------------------------------------------------|
Db|-------------------------------------------------------------------------------|
Ab|-------------------------------------------------------------------------------|
Eb|-------------------------------------------------------------------------------|

Pre-Chorus pre Gitara
eb|-------------------------------------------------|
Bb|-------------------------------------------------|
Gb|-------------------------------------------------|
Db|--2~---------------------------------------------|
Ab|--2~---------------------------------------------|
Eb|--0~---------------------------------------------|

Pre-Chorus pre Gitara 1

eb|-14--14--14--10-10-10-14-14-12-0--12--0-0-15--0-0-14-0-0-10-0-0-14-0-0-12-0-|
Bb|-------------------------------0------0-0-----0-0----0-0----0-0----0-0----0-|
Gb|----------------------------------------------------------------------------|
Db|----------------------------------------------------------------------------|
Ab|----------------------------------------------------------------------------|
Eb|----------------------------------------------------------------------------|

Gitara 2
eb|---------------------------------------------------|
Bb|-12-------10--------8--------8--8--8--8--8---------|
Gb|-12-------11--------9--------9--9--9--9--9---------|
Db|--x--------x--------x--------x--x--x--x--x---------|
Ab|-10--------9--------7--------7--7--7--7--7---------|
Eb|--0----0---0----0---0--------0--0--0--0--0---0--0--|

Pre-chorus pre Gitara 1
eb|--12-12-12/15-15-15-14--14^----------------------|
Bb|--12-12-12/15-15-15-15--15^----------------------|
Gb|-------------------------------------------------|
Db|-------------------------------------------------|
Ab|-------------------------------------------------|
Eb|---------------------------------/////////-------|

Chorus
eb|--------------------------------------------------------------------------------|
Bb|--------------------------------------------------------------------------------|
Gb|-----------------------------------------------------------11/12/14-------------|
Db|-2---2-2-2---5------4h5--4----2----2--2--2----2-2---5-------x--x--x----2--2-2-2-|
Ab|-2---2-2-2---5------5----5----2----2--2--2----2-2---5-------9/10/12----2--2-2-2-|
Eb|-0---0-0-0---3---0------------0----0--0--0----0-0---3---0--------------0--0-0-0-|

eb|---------------------------------------5-----------7--0--0--0--------------------|
Bb|------------------------------5----------5---------7--0--0--0--------------------|
Gb|--------------------------------5----------5-------8--0--0--0------7/9--9-9-9-9--|
Db|--5-----4h4--4-------5-----------------------7/9---9--------2------x-x--x-x-x-x--|
Ab|--5-----5----5-------------------------------------9--------2------5/7--7-7-7-7--|
Eb|--3--0------------5-----5--5--------5--------------7--------0------0----0-0-0-0--|



eb|-------------------------------------|------------------------------------------|
Bb|-------------------------------------|------------------------------------------|
Gb|-------------------------------------|------------------4---------5-------------|
Db|-------------------------------------|--------2-2-2-2---x---------x---------7---|
Ab|-2-2-2-2-----2-2-2-----2-2-2-2-2-2-2-|--2-2-2-2-2-2-2---2---------3---------5---|
Eb|-0-0-0-0-----0-0-0-----0-0-0-0-0-0-0-|--0-0-0-0-0-0-0-----0-0-0-0---0-0-0-0-----|


eb|--------------------------------------------------------------------------------|
Bb|--------------------------------------------------------------------------------|
Gb|-------4/5--4-----------0------4------------5----------------7--------9-9-9-9-9-|
Db|-------x-x--x-------------0----x------------x----------------x--------9-9-9-9-9-|
Ab|-------2/3--2------------------2------------3----------------5--------7-7-7-7-7-|
Eb|--0-0-------0---0-0-0----------0---0-0-0-0----0-0-0-0-0-0-0----0-0-0--0-0-0-0-0-|

Guitar 1
eb|-14---------14---------15------------------14-------17------15------------------|
Bb|--------------------------------------------------------------------------------|
Gb|------17--------17-------------16----------------------------------16-----------|
Db|-14------14--------14--14----------14--14-------14-----14----14---------14---14-|
Ab|--------------------------------------------------------------------------------|
Eb|--------------------------------------------------------------------------------|

eb|-14---------14----------15------------------17---------17-----19----------------|
Bb|----------------------------------------------------------0---------------------|
Gb|-----17---------17------------16-----------------17-----------------------------|
Db|-14------14---------14--14--------14--14----14------14--------14----------------|
Ab|--------------------------------------------------------------------------------|
Eb|--------------------------------------------------------------------------------|

Gitara 2
eb|----------------------------------------------------------------------------|
Bb|---------------------------------1313131313131313131313131313---------------|
Gb|--8-8-8-8-8-8-8-8-8-8-8-8-8------1111111111111111111111111111---------------|
Db|--7-7-7-7-7-7-7-7-7-7-7-7-7------1010101010101010101010101010---------------|
Ab|--6-6-6-6-6-6-6-6-6-6-6-6-6-------9-9-9-9-9-9-9-9-9-9-9-9-9-9---------------|
Eb|--0-0-0-0-0-0-0-0-0-0-0-0-0--0-0--0-0-0-0-0-0-0-0-0-0-0-0-0-0--0--0---------|

Gitara 2
eb|-----------------------------------------------------------------------------|
Bb|-16-16-16-16-16-16-16-16-16-16-16-16-16-16-----------------------------------|
Gb|-14-14-14-14-14-14-14-14-14-14-14-14-14-14-----------------------------------|
Db|-13-13-13-13-13-13-13-13-13-13-13-13-13-13-----------------------------------|
Ab|-12-12-12-12-12-12-12-12-12-12-12-12-12-12-----------------------------------|
Eb|--0--0--0--0--0--0--0--0--0--0--0--0--0--0--0--0----0-0-0--0-0-0-0-0-0-0-0-0-|


Outro for Guitar 2
eb|------------------------5---------------------------------------------5-------|
Bb|---------------5-------------5--------------------------------7---------7-----|
Gb|-----5-----------5--------------5---------------------7----------7--------7---|
Db|-----------------------------------7----------------------------------------7-|
Ab|------------------------------------------------------------------------------|
Eb|--5-----5--5---------5-----------------5--5--5--5--5-----5--5-------5---------|



eb|------------------7--7--7--7------------------------------------------*5--|
Bb|------------------7--7--7--7------------------------------------------*5--|
Gb|------------------8--8--8--8--9-9-8-8-8-8-8-8-8-----------------------*5--|
Db|------------------9--9--9--9--x-x-x-x-x-x-x-x-x---------------------------|
Ab|------------------9--9--9--9--7-7-6-6-6-6-6-6-6---------------------------|
Eb|--5--5--5--5--5---7--7--7--7--------------------0-0--0-0-0-0-0-0-0-0------|

koniec.

 
»
Tvoje obľúbené položky
Tvoje obľúbené položky
»
Najnovšie videá
Najnovšie videá

»
Tvoje obľúbené piesne
Tvoje obľúbené piesne
»
Najnavštevovanejšie piesne
Najnavštevovanejšie piesne
»
Nové albumy interpreta
Nové albumy interpreta



home | interpreti | register piesní | cd & dvd shop | pripomienky/nápady | kontakt | ochrana údajov | inzercia