Bad Karma Boy


piesne (4)

  texty (3)
  akordy (1)
  taby (1)
  preklady (0)


články (41)
Fotky (6)
diskusia
videá
diskografia
v obchode
odkazy
koncerty
sťahuj



pridaj vlastný článok

Bad Karma Boy:
BÍLKOVÁ: Café V lese? Undergroundové doupě, kde byl alespoň jednou snad
opravdu každý
- lidovky.cz


Bad Karma Boy:
ROZHOVOR S BAD KARMA BOY: V ČESKU CHYBÍ CELOPLOŠNÉ ALTERNATIVNÍ RÁDIO - musicweb.cz


Bad Karma Boy:
Le Payaco a Bad Karma Boy zahrajú na tohtoročnom ART IN PARK: vstupné platiť
nemusíte
- ahudba.sk


Bad Karma Boy:
Desiaty ročník Radio_Head Awards – sošku si odniesli Diego, Bad Karma Boy,
Fallgrapp a ďalší!
- music-zone.eu


Bad Karma Boy:
Koniec leta prinesie nový festival Skaly. Ponúkne - zoznam.sk


Bad Karma Boy:
Bad Karma Boy si na turné k novému albumu zahrajú - ahudba.sk


Bad Karma Boy:
Slovenské rádiá dobrú hudbu prehliadajú. Príkladom - sme.sk


Bad Karma Boy:
Bad Karma Boy – Prekrásny nový svet - Slnko Records


Bad Karma Boy:
VYDÁVAJÚ TRETÍ ALBUM PREKRÁSNY NOVÝ SVET - A.Cerevka


Bad Karma Boy:
Bad Karma Boy majú novú pesničku - Slnko records


 

Bad Karma Boy

Fanúšikov: 0



A B C Č D E F G H CH I J K L Ľ M N O P Q R S Š T U V W X Y Z Ž



ako:
Bad Karma Boy - Dunaj
Bad Karma Boy - Dunaj

tlač

edituj
Pesničku videlo 4344 návštevníkov.

Kvalita tabov : bez hodnotenia
Hodnotilo ľudí: 0 ohodnoť aj ty


Intro

Gmi F C
e----------------------------------|----------------------------------|
B----------------------------------|----------------------------------|
G------3---3-2-0-------3---3-2-0---|-------0----------------0---------|
D----------------------------------|----0h2--2-----------0h2--2p0---0-|
A----------------------------------|-3--3--3-3--3-3---3--3--3-3---3---|
E--3---3-3-3-3-3-0-1---1-1-1-1-1-0-|----------------------------------|

alebo jednoduchšia verzia
e----------------------------------|----------------------------------|
B----------------------------------|----------------------------------|
G------3---3-2-0-------3---3-2-0---|-------0----------------0---------|
D----------------------------------|---0h2---2----------0h2---2p0---0-|
A----------------------------------|-3-----3----3-3---3-----3-----3---|
E--3-----3-3-----0-1-----1-1-----0-|----------------------------------|



Verzia
Gmi F C
e----------------------------------|----------------------------------|
B----------------------------------|----------------------------------|
G----------------------------------|----------------------------------|
D----------------------------------|----------------------------------|
A----------------------------------|----------------------------------|
E--3-----3-3-----3-1-----1-1-----1-|/8-----8-8-----8---8---8-8-8-6-5--|

e----------------------------------|----------------------------------|
B----------------------------------|----------------------------------|
G------3---3-2-0-------3---3-2-0---|-------0----------------0---------|
D----------------------------------|----0h2--2-----------0h2--2p0---0-|
A----------------------------------|-3--3--3-3--3-3---3--3--3-3---3---|
E--3---3-3-3-3-3-0-1---1-1-1-1-1-0-|----------------------------------|

Refren
Gmi F C
e--3---------------1---------------|-0--------------------------------|
B--3---------------1---------------|-1--------------------------------|
G--3---------------2---------------|-0--------------------------------|
D--5---------------3---------------|-2--------------------------------|
A--5---------------3---------------|-3--------------------------------|
E--3---------------1---------------|-0--------------------------------|

Emi G Hmi
Vodopád tieni riečne zákruty,
Emi G Hmi C
meander slov čo vykopali zákopy.
Emi G Hmi
Vodopád tieni riečne zákruty,
Emi G Hmi F Fmi
meander slov a človek čo ťa pochopí.


 
»
Tvoje obľúbené položky
Tvoje obľúbené položky
»
Najnovšie videá
Najnovšie videá

»
Tvoje obľúbené piesne
Tvoje obľúbené piesne
»
Najnavštevovanejšie piesne
Najnavštevovanejšie piesne
Dunaj - akordy a text

Na ceste - text

Dunaj - taby

Predmestie - text

»
Nové albumy interpreta
Nové albumy interpreta



home | interpreti | register piesní | cd & dvd shop | pripomienky/nápady | kontakt | ochrana údajov | inzercia