Julian Perretta


piesne (1)

  texty (1)
  akordy (1)
  taby (0)
  preklady (0)


články (0)
Fotky (0)
diskusia
videá
diskografia
v obchode
odkazy
koncerty
sťahuj



pridaj vlastný článok




 

Julian Perretta

Fanúšikov: 0



A B C Č D E F G H CH I J K L Ľ M N O P Q R S Š T U V W X Y Z Ž



ako:
Julian Perretta - Miracle
Julian Perretta - Miracle

tlač

edituj

export
agama

export
txt
Poznámka: Kapodaster na 3

Pesničku videlo 1911 návštevníkov.

Kvalita akordov : bez hodnotenia
Hodnotilo ľudí: 0 ohodnoť aj ty
Transpozícia:   [+1 +2 -1 -2]   *** Autor textu: Julka2510 *** Autor hudby: Julka2510
e/------------------------/------------------------/------------------------/------------------------/
H/------------------------/------------------------/------------------------/------------------------/
G/----0-----0-----0-----0-/----5-----5-----5-----5-/----4-----4-----4-----0/------------------------/
D/------------------------/------------------------/-0-----0-----0-----0----/----4-----4-----4-----4-/
A/-2-----2-----2-----2----/-3-----3-----3-----3----/------------------------/-0-----0-----0-----0----/
E/------------------------/------------------------/------------------------/------------------------/

Emi7 Cadd9
When the leaves turn brown
G
I watched it burn
D
Across the sun and above the clouds
Emi7 Cadd9
The sirens clear
G D
I'm ready to fall and find a lover that was meant for me
Emi7, Cadd9
When the wolves run wild
G
I see myself
D
But you won't take this road I go down
Emi7 Cadd9
The nights grow cold
G
The flame goes out
D
Living forever in a ghost town

Emi7
R: You saved me
Cadd9
I saved you
G D
A miracle that was meant for two
Emi7
I save you
Cadd9
You save me
G D
A miracle with every beat of my heart

e/-3--3--3--5/7--5--3--5-/-3--0--5--5/7--5--3--5-/-3--0--5--5/7--5--3--5-/-5--5--5--8/10--8--7/0-/
H/-----------------------/-----------------------/-----------------------/-----------------------/
G/-----------------------/-----------------------/-----------------------/-----------------------/
D/-----------------------/-----------------------/-----------------------/-----------------------/
A/-----------------------/-----------------------/-----------------------/-----------------------/
E/-----------------------/-----------------------/-----------------------/-----------------------/

/: With every beat of my heart :/5x
R:
/: With every beat of my heart :/5x

 
»
Tvoje obľúbené položky
Tvoje obľúbené položky
»
Najnovšie videá
Najnovšie videá

»
Akordové schémy
Akordové schémy
»
Tvoje obľúbené piesne
Tvoje obľúbené piesne
»
Najnavštevovanejšie piesne
Najnavštevovanejšie piesne
Miracle - akordy a text

»
Nové albumy interpreta
Nové albumy interpreta



home | interpreti | register piesní | cd & dvd shop | pripomienky/nápady | kontakt | ochrana údajov | inzercia