Nino Rota


piesne (2)

  texty (0)
  akordy (0)
  taby (2)
  preklady (0)


články (0)
Fotky (0)
diskusia
videá
diskografia
v obchode
odkazy
koncerty
sťahuj



pridaj vlastný článok




 

Nino Rota

Fanúšikov: 0



A B C Č D E F G H CH I J K L Ľ M N O P Q R S Š T U V W X Y Z Ž



ako:
Nino Rota - Kmotr
Nino Rota - Kmotr

tlač

edituj
Rok vzniku: 1972
Pesničku videlo 2714 návštevníkov.

Kvalita tabov : bez hodnotenia
Hodnotilo ľudí: 0 ohodnoť aj ty
Prispievateľ:
dodavatel96
Autor hudby: Nino Rota
e|-0-3-2-0-3-0-2-0------|-0-3-2-0-3-0-2-0------|------2-------0|--------------------------|
h|0----------------1-3-0|0----------------0----|-1-4------1-4--|--3-1-0-3-1-1-0-0---------|
g|----------------------|-------------------3-2|2--------2-----|-0------------------------|
d|----------------------|----------------------|---------------|2----------------------1-2|

e|0-0--------2-0----|------------------|-0-3-2-0-3-0-2-0------|-0-3-2-0-3-0-2-0------|
h|----4-3--------1-0|0-3-0--------1---0|0----------------1-3-0|0----------------0----|
g|------------------|------2----2---3--|----------------------|-------------------3-2|
d|------------------|------------------|----------------------|----------------------|

e|------2----------0|----------------------0|
h|--1-4--------1-4--|----3-1-0-3-1-1-0-0-4--|
g|2----------2------|--0--------------------|
d|------------------|2----------------------|


 
»
Tvoje obľúbené položky
Tvoje obľúbené položky
»
Najnovšie videá
Najnovšie videá

»
Tvoje obľúbené piesne
Tvoje obľúbené piesne
»
Najnavštevovanejšie piesne
Najnavštevovanejšie piesne
Kmotr - taby

The Godfather - taby

»
Nové albumy interpreta
Nové albumy interpreta



home | interpreti | register piesní | cd & dvd shop | pripomienky/nápady | kontakt | ochrana údajov | inzercia