Alan Walker


piesne (17)

  texty (9)
  akordy (5)
  taby (1)
  preklady (0)


články (3)
Fotky (1)
diskusia
videá
diskografia
v obchode
odkazy
koncerty
sťahuj



pridaj vlastný článok

Alan Walker:
Alan Walker predstavuje ďalšiu pecku z nového albumu, takto znie Don’t You
Hold Me Down
- Nový album už čoskoro!... - expres.sk


Heartbeat:
Sam Smith i Alan Walker! Jako jsou HUDEBNÍ NOVINKY EVROPY 2? - THE CARSLEEPERS – Heartbeat ALAN WALKER feat. AVA MAX – Alone, pt.II JAX JONES feat. ... - evropa2.cz


Ava Max:
Novinka Evropa 2 Music Chart: ALAN WALKER feat. AVA MAX – Alone, pt. II - Představujeme novinku č. 4 v hitparádě! The post Novinka Evropa 2 Music Chart: ALAN ... - evropa2.cz


ABOUT:
Nové desky 13/2020 - od Steva Aokiho přes All Time Low po Kurta Ellinga - Vydáno: 07.04.2020 08:00 v sekci Nové desky - Tomáš Parkan a Petra Hubáčková | fot... - musicserver.cz


Ruben:
Nórska popová úderka Alan Walker a Ruben v spoločnom singli Heading Home - Hudba Klipy Alan WalkerRuben Vychutnaj si fresh dávku nórskej hudby! Alan Walker sa ... - expres.sk


Kryštof:
V rádiích i nadále vládne Alan Walker, prodejům opět Kryštof - musicserver.cz


 

Alan Walker

Fanúšikov: 1



A B C Č D E F G H CH I J K L Ľ M N O P Q R S Š T U V W X Y Z Ž



ako:
Alan Walker - Faded
Alan Walker - Faded

tlač

edituj
Rok vzniku: 2015
Pesničku videlo 4414 návštevníkov.

Kvalita tabov : bez hodnotenia
Hodnotilo ľudí: 0 ohodnoť aj ty
Prispievateľ:
dodavatel96
Autor hudby: Alan Walker

e|--------------6--------6|------------------|----------------6------9-6|-------|
H|7-7---7---7-9----7-7----|--7-7-7-6--6-6---7|--7-7---7---7-9----7-7----|--7-7-9|
G|----8---8------------8--|---------------8--|------8---8---------------|-------|


e|6-6-6-6|--6-6-6-6|--6-6-6-6|-----------6------|--6-6-6-6|--------------------|
H|-------|---------|---------|--9-9-9--9---9-7-7|---------|--7-7-7--7-9-7-6-6-6|

e|6-6-6-6|-------|----9--9-6|----9--9-6---|--6-6-6-6|--------7|--9-6-9-6-9-6-7-6---7|
H|-------|-------|--7-------|--7---------9|---------|--7-7----|------------------9--|
G|-------|--8-8-6|----------|-------------|---------|------8--|---------------------|

e|----7-6|----7-6-----|----7-6|----7-9-----|----7-6|
H|--7----|--7------7-6|--9----|--7------7-6|--9----|

e|----------------6--------6|------------------|----------------6----9-6|-------|
H|--7-7-7-7---7-9----7-7----|--7-7-7-6--6-6---7|--7-7-9-7---7-9----7----|--7-7-9|
G|----------8------------8--|---------------8--|----------8-------------|-------|

e|6-6-6-6|--6-6-6-6|----9--9-6---9--9-6----9-9-6----|----9--9-6|----9--9-6--|
H|-------|---------|--7--------7---------7-------9-7|--7-------|--7--------9|

improvizovaná mezihra

e|6-6-6-6|-------|----9--9-6|----9--9-6---|--6-6-6-6|--------7|--9-6-9-6-9-6-7-6---7|
H|-------|-------|--7-------|--7---------9|---------|--7-7----|------------------9--|
G|-------|--8-8-6|----------|-------------|---------|------8--|---------------------|

e|----7-6|----7-6-----|----7-6|----7-9-----|----7-6|
H|--7----|--7------7-6|--9----|--7------7-6|--9----|


 
»
Tvoje obľúbené položky
Tvoje obľúbené položky
»
Najnovšie videá
Najnovšie videá

»
Tvoje obľúbené piesne
Tvoje obľúbené piesne
»
Najnavštevovanejšie piesne
Najnavštevovanejšie piesne
»
Nové albumy interpreta
Nové albumy interpreta



home | interpreti | register piesní | cd & dvd shop | pripomienky/nápady | kontakt | ochrana údajov | inzercia