Fogerty John


piesne (32)

  texty (13)
  akordy (11)
  taby (18)
  preklady (1)


články (0)
Fotky (1)
diskusia
videá
diskografia
v obchode
odkazy
koncerty
sťahuj



pridaj vlastný článok




 

Fogerty John

Fanúšikov: 0



A B C Č D E F G H CH I J K L Ľ M N O P Q R S Š T U V W X Y Z Ž



ako:
Fogerty John - Who'll Stop The Rain?
Fogerty John - Who'll Stop The Rain?

tlač

edituj
Pesničku videlo 1554 návštevníkov.

Kvalita tabov : bez hodnotenia
Hodnotilo ľudí: 0 ohodnoť aj ty


Standard Tuning: EADGBe

Chords used:

G C D Em Bm Am
e---3----0----2----0-----2----0--------|
B---0----1----3----0-----3----1--------|
G---0----0----2----0-----4----2--------|
D---0----2----0----2-----4----2--------|
A---2----3---------2-----2-------------|
E---3--------------0-------------------|

Intro: (i'm sorry I can't figure out what the rhythm guitar is playing)

e---3---3---3---3---3---3-------------|
B--0---0---0---0---0---0--------------|
G-0---0---0---0---0---0---------------|
D-------------------------------------|
A-------------------------------------|
E-------------------------------------|


(Guitar measure #1)
e--------------------------------|
B------3-------------------------|
G--2/4---4\2--0------------------|
D--------------------------------|
A--------------------------------|
E--------------------------------|

(Guitar measure 2)

e------7--0-----------------------|
B---------------------------------|
G---/7--7---7---------------------|
D---------------------------------|
A---------------------------------|
E---------------------------------|

G C G
Long as I remember the rain been comin' down

G C G
Clouds of Myst'ry pourin' confusion on the ground

C G C G
Good men through the ages trying to find the sun

C D Em G (measure 1)
And I wonder still I wonder who'll top the rain?

G C G
I went down Virginia seeking shelter from the storm

G Bm C G (measure 2)
Caught up in the fable, I watched the tower grow

C G C G (measure 2)
Five year plans and new deals, wrapped in golden chains

C D Em G (measure 1)
And I wonder still I wonder who'll stop the rain?

Break:

G D Am C Em D G


(First section of verse is in a lower volume)

G C G (can't figure this riff out)
Heard the singers playin, how we cheered for more

(Volume is turned back up)

G Bm C G
The crowd had rushed together, tryin' to keep warm

C G (measure 2) C G (measure 2)
Still the rain kept pourin', fallin on my ears

C D Em G
And I wonder still I wonder who'll stop the rain?


Outro: (until fadeout)

e----3---3---3---3--------------|
B---0---0---0---0---------------|
G--0---0---0---0----------------|
D-------------------------------|
A-------------------------------|
E-------------------------------|


 
»
Tvoje obľúbené položky
Tvoje obľúbené položky
»
Najnovšie videá
Najnovšie videá

»
Tvoje obľúbené piesne
Tvoje obľúbené piesne
»
Najnavštevovanejšie piesne
Najnavštevovanejšie piesne
Have You Ever Seen The Rain - text

Green River - akordy a text

Proud Mary - preklad

Centrefield - akordy a text

Blue Moon Nights - akordy a text

Around The Bend - taby

Born On The Bayou - taby

Green River - taby

Deja Vu (all Over Again) - akordy a text

Deja Vu - akordy a text

Have You Ever Seen The Rain - akordy a text

Molina - akordy a text

Proud Mary - taby

Rockin\' All Over The World! - akordy a text

Proud Mary - text

The Old Man Down The Road - taby

Who\'ll Stop The Rain? - taby

Lodi - taby

Proud Mary - akordy a text

Rock And Roll Girls - akordy a text

viac

»
Nové albumy interpreta
Nové albumy interpreta



home | interpreti | register piesní | cd & dvd shop | pripomienky/nápady | kontakt | ochrana údajov | inzercia