Animals


piesne (15)

  texty (10)
  akordy (8)
  taby (3)
  preklady (1)


články (17)
Fotky (10)
diskusia
videá
diskografia
v obchode
odkazy
koncerty
sťahuj



pridaj vlastný článok

Animals:
Zemřel kytarista Hilton Valentine zakládající člen The Animals - V sobotu večer přišla nahrávací společnost ABKCO Music & Records se smutným ozná... - IREPORT


Animals:
Inštrumentálnosti Animals vyšli výkrikom Between v ústretí – report - musicpress.sk


Animals:
Zakladateľ The Animals Eric Burdon vystúpi v augusta na Devíne


Animals:
Úspěch motivuje člověka k další činnosti, říká zpěvák skupiny Pub
Animals
- novinky.cz


Animals:
Stropkovčania spomínali na zlatý vek domáceho bigbítu


Animals:
John Vanderslice, Thank You a Plants & Animals ve fotografiích - freemusic.cz


Ac/dc:
Naj albumy podľa Rolling Stone


Animals:
Festival Kaplický Randál uvede Visací Zámek, Tleskač a další - musiczone.cz


Animals:
hit dňa 5.7.


Animals:
Pamela Anderson vydražila auto, aby pomohla plazom - Bleskovky - Main


 

Animals

Fanúšikov: 0



A B C Č D E F G H CH I J K L Ľ M N O P Q R S Š T U V W X Y Z Ž



ako:
Animals - House Of The Rising Sun
Animals - House Of The Rising Sun

tlač

edituj
Rok vzniku: 1964
Poznámka: Je to iba o vybrnkávaní akordov Ami,C,D,F,E

Pesničku videlo 7592 návštevníkov.

Kvalita tabov :
Hodnotilo ľudí: 2 ohodnoť aj ty

There [Ami]is a [C]house in [D]New Orleans [F]
They [Ami]call the [C]Rising [E]Sun
And it's [Ami]been the [C]ruin of [D]many a poor [F]boy
And [Ami]God I [E]know I'm [Ami]one [C] [D] [F] [Ami] [E] [Ami] [E]

My [Ami]mother [C]was a [D]tailor [F]...

Ami
E:-----------0---------------------
B:--------1-----1------------------
G:------2----------2---------------
D:----2----------------------------
A:-0-------------------------------
E:---------------------------------

C
E:-----------0---------------------
B:--------1-----1------------------
G:------0----------0---------------
D:----2----------------------------
A:-3-------------------------------
E:---------------------------------

D
E:----------2----------------------
B:-------3-----3-------------------
G:-----2----------2----------------
D:-0-0-----------------------------
A:---------------------------------
E:---------------------------------

F
E:----------1----------------------
B:-------1-----1-------------------
G:-----2----------2----------------
D:-3-3-----------------------------
A:---------------------------------
E:---------------------------------

E
E:------------0--------------------
B:---------0-----0-----------------
G:-------1----------1--------------
D:-----2---------------------------
A:---------------------------------
E:--0------------------------------



 
»
Tvoje obľúbené položky
Tvoje obľúbené položky
»
Najnovšie videá
Najnovšie videá

»
Tvoje obľúbené piesne
Tvoje obľúbené piesne
»
Najnavštevovanejšie piesne
Najnavštevovanejšie piesne
»
Nové albumy interpreta
Nové albumy interpreta



home | interpreti | register piesní | cd & dvd shop | pripomienky/nápady | kontakt | ochrana údajov | inzercia