Lasica A Satinský


piesne (75)

  texty (72)
  akordy (21)
  taby (2)
  preklady (0)


články (12)
Fotky (16)
diskusia
videá
diskografia
v obchode
odkazy
koncerty
sťahuj



pridaj vlastný článok

Lasica A Satinský:
Příběh Lasici a Satinského vyjde ve formě komiksu - novinky.cz


Jaro Filip:
Ako vzniká hit: Do batôžka - sme.sk


Lasica A Satinský:
Píše listy z Onoho sveta a lieta vo vesmíre - Július Satinský


Lasica A Satinský:
Tak to su resp.boli klasici


Lasica A Satinský:
Július Satinský by dnes oslávil 65. narodeniny


Lasica A Satinský:
Krst knihy o Lasicovi a Satinskom - sme.sk


Filmová Hudba Cz:
Július Satinský: Gurmán života a organizátor zážitků - televize.cz


Filmová Hudba Cz:
Július Satinský: Nemanželská dcéra! - bleskovky.sk


Filmová Hudba Cz:
Viera Satinská: „Nemohla som ľuďom povedať – manžel zomiera, dajte nám
pokoj!“
- zivot.sk


Lasica A Satinský:
V Štúdiu L + S to bude bublať mladosťou, teší sa Július Satinský - pravda


 

Lasica A Satinský

Fanúšikov: 0



A B C Č D E F G H CH I J K L Ľ M N O P Q R S Š T U V W X Y Z Ž



ako:
Lasica A Satinský - Keď som išiel
Lasica A Satinský - Keď som išiel

tlač

edituj
Pesničku videlo 6634 návštevníkov.

Kvalita tabov : bez hodnotenia
Hodnotilo ľudí: 0 ohodnoť aj ty
E|---4s5-5-5-5-5-5-5-5-5-5s7-5-3-5-------4s5-5-5-5-5-5-5-5-5-5s7-5-3-5----
B|---------------------------------5-----------------------------------5--
G|------------------------------------------------------------------------
D|------------------------------------------------------------------------
A|------------------------------------------------------------------------
E|------------------------------------------------------------------------

E|------------------------------------------------------------------------
B|---2s3-3-3-3-3-3-3-3-3-5---6-5---5-----2s3-3-3-3-3-3--1-----1-----------
G|-------------------------------5-------------------------4-----4---2----
D|------------------------------------------------------------------------
A|------------------------------------------------------------------------
E|------------------------------------------------------------------------

 
»
Tvoje obľúbené položky
Tvoje obľúbené položky
»
Najnovšie videá
Najnovšie videá

»
Tvoje obľúbené piesne
Tvoje obľúbené piesne
»
Najnavštevovanejšie piesne
Najnavštevovanejšie piesne
Keď som išiel - akordy a text

Song o idúcom muničnom vagóne - akordy a text

Čerešne - text

Za dedinou - akordy a text

Bolo nás jedenásť - akordy a text

Sága rodu Forsajtovcov - akordy a text

Chcel by som byť - text

Spomínam na Paríž - akordy a text

Do batôžka - akordy a text

Jaj Zuzka, Zuzička - text

V našej obci - text

Keď som išiel - akordy a text

Ježibaby - akordy a text

vyletel vták - akordy a text

Mäso - text

Clivota - text

Smola - text

Keď som išiel - taby

Dotazník - akordy a text

Valutový cudzinec - text

viac

»
Nové albumy interpreta
Nové albumy interpreta



home | interpreti | register piesní | cd & dvd shop | pripomienky/nápady | kontakt | ochrana údajov | inzercia