Lojzo


piesne (38)

  texty (33)
  akordy (20)
  taby (1)
  preklady (0)


články (55)
Fotky (9)
diskusia
videá
diskografia
v obchode
odkazy
koncerty
sťahuj



pridaj vlastný článok

Lojzo:
Marián Kochanský by dnes oslávil 65. narodeniny: Syn Marek prehovoril o
najťazších chvíľach a... Takto si na otca spomínajú
- Marián Kochanský Marián Kochanský Zdroj: TASR/Zuzana Čižmáriková pred 5... - topky.sk


Lojzo:
V roku 1985 kraľovala v éteri skupina Lojzo so svojou pesničkou Učiteľka
chémie
- Hudba Lojzo Prvý album kapely Lojzo, ktorý OPUS vydal v roku 1985 sa hneď stal lege... - expres.sk


Lojzo:
Exmanželka Kochanského († 50), lídra skupiny Lojzo: Boj o život! - cas.sk


Tomáš Bezdeda:
Jadranka či Kazík. Slávik končí, pozrite sa, kto u Slovákov bodoval pred
rokmi
- sme.sk


Farkasovci:
V edícii Opus 100 vyšli albumy od Lučeniča či Kocianovej


Lojzo:
Oslávenci z kapely Lojzo: Pre muziku sa im rozpadli manželstvá - azet.sk


Lojzo:
Odkaz kapely Lojzo Kochanskému: Marián, spievame pre teba! - pluska.sk


Lojzo:
Tretia séria Legiend popu štartuje dnes so skupinou Lojzo


Lojzo:
TEPLÁKOVÝ BÁL venovaný 30. výročiu skupiny LOJZO - Kultúrne zariadenia Petržalky


Abba:
Na Festivale CERVENIK dominovala ABBA SHOW a technicka zaujimavost... - Jan Kakascik


 

Lojzo

Fanúšikov: 1



A B C Č D E F G H CH I J K L Ľ M N O P Q R S Š T U V W X Y Z Ž



ako:
Lojzo - Každý deň budú vraj Vianoce
Lojzo - Každý deň budú vraj Vianoce

tlač

edituj
Pesničku videlo 18222 návštevníkov.

Kvalita tabov : bez hodnotenia
Hodnotilo ľudí: 0 ohodnoť aj ty
  *** Autor textu: lojzo *** Autor hudby: lojzo

Lojzo-kazdy den budu vraj vianoce

intro
e------------------------------------------------
h----------------5-5----5-5-5-5-5----------------
g----5-------7-------7------------7--7-5-7-5-----
d--5----5--7---------------------------------7-5-
A------------------------------------------------
E------------------------------------------------

e----------------------------------------
h----------------------------------------
g---5---7---7-5-------5---5-----7-7--4---
d-5---5---7-----7-5-7---5---5-7----7-----
A----------------------------------------
E----------------------------------------

potom tam idu akordy.tie si pozri inde a solo je take
iste ako intro az na to ze na konci
ide namiesto tej stvorky toto

e------------------------------------------------
h--5-7-9-----------------------------------------
g------------------------------------------------
d------------------------------------------------
A------------------------------------------------
E------------------------------------------------

a potom znova akordy.
urcite to nie je dobre a mozno to ani nesedi do toniny
ale to je jedno
je to trochu upravene vo verzii jimmyho pagea.
ja som to hral v skole na poziadanie ucitelky
tak som to napisal aj sem

Bariz


 
»
Tvoje obľúbené položky
Tvoje obľúbené položky
»
Najnovšie videá
Najnovšie videá

»
Tvoje obľúbené piesne
Tvoje obľúbené piesne
»
Najnavštevovanejšie piesne
Najnavštevovanejšie piesne
»
Nové albumy interpreta
Nové albumy interpreta



home | interpreti | register piesní | cd & dvd shop | pripomienky/nápady | kontakt | ochrana údajov | inzercia