B.s.c.


piesne (20)

  texty (17)
  akordy (3)
  taby (1)
  preklady (0)


články (0)
Fotky (0)
diskusia
videá
diskografia
v obchode
odkazy
koncerty
sťahuj



pridaj vlastný článok




 

B.s.c.

Fanúšikov: 0



A B C Č D E F G H CH I J K L Ľ M N O P Q R S Š T U V W X Y Z Ž



ako:
B.s.c. - Kráľ
B.s.c. - Kráľ

tlač

edituj

export
agama

export
txt
Pesničku videlo 2361 návštevníkov.

Kvalita akordov : bez hodnotenia
Hodnotilo ľudí: 0 ohodnoť aj ty
Transpozícia:   [+1 +2 -1 -2]

Intro
e------------------
b-7-8-10-8--10-8-7-
g------------------
d------------------
a------------------
e------------------

Song
D C# D B A# B

Chorus
G A B A# B

Solo
e----------------------------------------------------------------
b-7-7-7-7-8-8-10-8-7-5----------------------3-3-3-3-5-5--7-7-5-7-
g----------------------------------------------------------------
d----------------------------------------------------------------
a----------------------7-7-7-7-9-9-10-9-7-5----------------------
e----------------------------------------------------------------

e-----------------------------------
b-7--7-8--8-7-3--7-3-7-3--3-5-7-8-7-
g-----------------------------------
d-----------------------------------
a-----------------------------------
e-----------------------------------

e-7-7-7-7-8-8-8-8-3-3-3-3-5-3-3-3-3-5-5-5-5-7-7-7-7-
b-7-7-7-7-8-8-8-8-3-3-3-3-5-3-3-3-3-5-5-5-5-7-7-7-7-
g---------------------------------------------------
d---------------------------------------------------
a---------------------------------------------------
e---------------------------------------------------

 
»
Tvoje obľúbené položky
Tvoje obľúbené položky
»
Najnovšie videá
Najnovšie videá

»
Tvoje obľúbené piesne
Tvoje obľúbené piesne
»
Najnavštevovanejšie piesne
Najnavštevovanejšie piesne
»
Nové albumy interpreta
Nové albumy interpreta



home | interpreti | register piesní | cd & dvd shop | pripomienky/nápady | kontakt | ochrana údajov | inzercia