Cikáni Jdou Do Nebe


piesne (7)

  texty (3)
  akordy (2)
  taby (3)
  preklady (1)


články (1)
Fotky (0)
diskusia
videá
diskografia
v obchode
odkazy
koncerty
sťahuj



pridaj vlastný článok

Cikáni Jdou Do Nebe:
Cikáni v Rock Café! - funtime.estranky.cz


 

Cikáni Jdou Do Nebe

Fanúšikov: 0



A B C Č D E F G H CH I J K L Ľ M N O P Q R S Š T U V W X Y Z Ž



ako:
Cikáni Jdou Do Nebe - Andro Verdan
Cikáni Jdou Do Nebe - Andro Verdan

tlač

edituj
Pesničku videlo 7585 návštevníkov.

Kvalita tabov :
Hodnotilo ľudí: 1 ohodnoť aj ty
Ami   Ami7   Dmi7   D7sus9  Ami  Ami7    Ami  Ami7

e |-5---5--5-5-|-5---5--5-5-|-5---5--5-5-|-5---5--5-5-|
h |-5---5--5-5-|-6---5--5-5-|-5---5--5-5-|-5---5--5-5-|
g |-5---5--5-5-|-5---5--5-5-|-5---5--5-5-|-5---5--5-5-|
d |-7---5--5-5-|-7---7--7-7-|-7---5--5-5-|-7---5--5-5-|
A |-7---7--7-7-|-5---5--5-5-|-7---7--7-7-|-7---7--7-7-|
E |-5---5--5-5-|-5---5--5-5-|-5---5--5-5-|-5---5--5-5-|




G7 G6 G7 C7 Cisdim7

e |-3---3--3-3-|-3---3--3-3-|-3---3--3-3-|-3---3--3-3-|
h |-3---6--6-6-|-5---3--3-3-|-5---5--5-5-|-5---5--5-5-|
g |-4---4--4-4-|-4---4--4-4-|-3---3--3-3-|-3---3--3-3-|
d |-3---3--3-3-|-3---3--3-3-|-5---5--5-5-|-5---5--5-5-|
A |-5---5--5-5-|-5---5--5-5-|-3---3--3-3-|-4---4--4-4-|
E |-3---3--3-3-|-3---3--3-3-|-3---3--3-3-|-3---3--3-3-|

man pirano šukar na- ne


Dmi7 D7sus9 Ami Ami7 E7

e |-5---5--5-5-|-5---5--5-5-|-7--7--7----|
h |-6---5--5-5-|-5---5--5-5-|-9--9--9----|
g |-5---5--5-5-|-5---5--5-5-|-7--7--7----|
d |-7---7--7-7-|-7---5--5-5-|-9--9--9----|
A |-5---5--5-5-|-7---7--7-7-|-7--7--7----|
E |-5---5--5-5-|-5---5--5-5-|-x--x--x----|

l'oli phabaj prečhinava hop hop hop


Ddim7 E7 Ddim7 E7 Eadd47 Ami

e |-7---7--7-7-|-7---7--7-7-|-5--5--5----|
h |-9---9--9-9-|-9---9--9-9-|-5--5--5----|
g |-7---7--7-7-|-7---7--7-7-|-5--5--5----|
d |-9---9--9-9-|-9---9--9-7-|-7--7--7----|
A |-8---7--7-7-|-8---7--7-7-|-7--7--7----|
E |-x---x--x-x-|-x---x--x-x-|-5--5--5----|

jepaš tuke jepaš mange hop hop h

 
»
Tvoje obľúbené položky
Tvoje obľúbené položky
»
Najnovšie videá
Najnovšie videá

»
Tvoje obľúbené piesne
Tvoje obľúbené piesne
»
Najnavštevovanejšie piesne
Najnavštevovanejšie piesne
Andro Verdan - text

Andro Verdan - akordy a text

Jablíčko - akordy a text

Jablíčko - preklad

Andro Verdan - taby

Nane cocha - taby

Khamoro - taby

»
Nové albumy interpreta
Nové albumy interpreta



home | interpreti | register piesní | cd & dvd shop | pripomienky/nápady | kontakt | ochrana údajov | inzercia