Jasoň


piesne (10)

  texty (9)
  akordy (3)
  taby (1)
  preklady (0)


články (39)
Fotky (0)
diskusia
videá
diskografia
v obchode
odkazy
koncerty
sťahuj



pridaj vlastný článok

Bůhví:
Lodenica 2013 v dlhšej skratke - folk.sk


Bad Seeds:
Nick Cave a Franz Ferdinand v auguste na neďalekom Sziget festivale! - Silvia Turnerova


Adams:
Zlaté glóbusy rozdajú už dnes, poznáme nominovaných - Bleskovky - Main


Above & Beyond:
Festival Creamfields Central Europe oznamuje další část lineupu


Jasoň:
VIDEO Najbláznivejšie reklamy Super Bowl: Blysol sa aj drsňák Jason Statham! - Bleskovky - Main


Can:
hit dňa 30.6.


Blue:
videokalendár na 3.6.


Jasoň:
Jason Webley v stredu odohrá svoj prvý slovenský koncert


Ali Ibn Rachid:
Jún v Bratislave: Wilsonic, Lenny Kravitz, Santana... - muzikus.cz


Beck:
videokalendar na 1.6.


 

Jasoň

Fanúšikov: 0



A B C Č D E F G H CH I J K L Ľ M N O P Q R S Š T U V W X Y Z Ž



ako:
Jasoň - Loď
Jasoň - Loď

tlač

edituj
Pesničku videlo 3079 návštevníkov.

Kvalita tabov : bez hodnotenia
Hodnotilo ľudí: 0 ohodnoť aj ty

Jasoň
Loď
Remoš+Uhroš

e-----------------------------------
h--10-9-9---10-9-9--10-9--10^9------
g------------------------------9-9--

e-----------------------------------
h--10-9-9---10-9-9--10-9---12-/-14--
g-----------------------------------

e-----------------------------------
h--10-9-9---10-9-9--10-9--10tr9-----
g-------------------------------9-9-

e-----------------------------------
h--10-9-9--10-9---------------------
g---------------9--11--9------------

e--------------5-4-5^4--------------
h-----------5-7--------5-7----------
g--4-6--4-6-------------------------

e-----------------------------------
h--9-10-12---12-12-12/14-12---12-10-
g-----------------------------------

e-----------------5-4-5^4------------
h---------------5-7--------5-7-------
g-4-4-4-6--4-6-----------------------

e-----------------------------------
h--9-10-12---12-12-12/14-12---12-10-
g-----------------------------------

e------------------------------------------------
h--10-9-9---10-9-9--10-9--10^9-------------------
g------------------------------9-9--11-9---------
D----------------------------------------11-9-11-

e------------------------------------------------
h-10-9-9--10-9-9--10-9-10-12--12/14--12-10-------
g------------------------------------------------

e------------------------------------------------
h--10-9-9---10-9-9--10-9--10^9-------------------
g------------------------------9-9--11-9---------
D----------------------------------------11-9-11-

e------------------------------------------------
h-10-9-9--10-9-9--10-9-10-12--12/14--12-10-------
g------------------------------------------------

e-----------------------------------
h-10-10-10-10-10-10-9-9-10-10.......
g-----------------------------------

e-----------------------------------
h-10-10-10-12-12-12-9-9-10-10.......
g-----------------------------------

e-----------------------------------
h-10-10-10-10-10-10-9-9-10-10.......
g-----------------------------------

e-----------------------------------
h-10-10-10-12-12-12-9-9-10-10.......
g-----------------------------------

[A]sny sú malé [F#mi]príbehy
ľudí [Hmi]ktorých [D]dospávajú[A]
[A]s hlavou v mäkkom [F#mi]páperí
sa [Hmi]s nami [D]radi
[A]hrajú [F#mi]hrajú [Hmi]hrajúú[D]ú
[A]hrajú [F#mi]hrajú [Hmi]hrajúú[D]ú


[A]voda ktorá [F#mi]preteká
veľkou [Hmi]riekou [D]unáša [A]loď
[A]a jej vlajka [F#mi]veliká
nám [Hmi]máva tak [D]vstaň
[A]a poď [F#mi]a poď [Hmi]a póó[D]óď
[A]a poď [F#mi]a poď [Hmi]a póó[D]óď

[C#mi]dosní[D]vaj je [A]ráno
[C#mi]dosní[D]vaj je [A]čas
[C#mi]dosní[D]vaj je [A]ráno
[C#mi]dosní[D]vaj je [A]čas


e-----------------------------------
h--10-9-9---10-9-9--10-9--10^9------
g------------------------------9-9--

e-----------------------------------
h--10-9-9---10-9-9--10-9---12-/-14--
g-----------------------------------

e-----------------------------------
h--10-9-9---10-9-9--10-9--10tr9-----
g-------------------------------9-9-

e-----------------------------------
h--10-9-9--10-9---------------------
g---------------9--11--9------------

eta vsjo:)

 
»
Tvoje obľúbené položky
Tvoje obľúbené položky
»
Najnovšie videá
Najnovšie videá

»
Tvoje obľúbené piesne
Tvoje obľúbené piesne
»
Najnavštevovanejšie piesne
Najnavštevovanejšie piesne
Loď - taby

More - text

Jednou stopou - text

Dažďová - text

To už je dávno - text

Zbojníček - text

More - akordy a text

Biely & Čierny - akordy a text

Poznám - akordy a text

Tohtoročná - text

»
Nové albumy interpreta
Nové albumy interpreta



home | interpreti | register piesní | cd & dvd shop | pripomienky/nápady | kontakt | ochrana údajov | inzercia