František Nedvěd


piesne (107)

  texty (98)
  akordy (50)
  taby (8)
  preklady (0)


články (55)
Fotky (16)
diskusia
videá
diskografia
v obchode
odkazy
koncerty
sťahuj



pridaj vlastný článok

František Nedvěd:
Zpěvák František Nedvěd (†73): Před smrtí vydělal víc než jeho bratr! - V posledních měsících před smrtí Františka Nedvěda (†73) došlo k paradoxní s... - blesk.cz


Brontosauři:
František Nedvěd podlehl rakovině plic, bylo mu 73 let - Zemřel český zpěvák a kytarista František Nedvěd. Část svého života vystupoval... - IREPORT


František Nedvěd:
Zemřel František Nedvěd - František Nedvěd, jeden z nejoblíbenějších tuzemských folkových hudebníků, v ne... - musicserver.cz


František Nedvěd:
Poslední minuty Františka Nedvěda: Omylem si vzal víc prášků než měl,
říká rodina
- Podle rodiny Františka Nedvěda (†73) se tomuto legendárnímu umělci, který ... - extra.cz


František Nedvěd:
Dojemné parte Františka Nedvěda (†73): Je na něm úryvek písničkářova
hitu
- Zdrcená rodina zveřejnila parte country zpěváka Františka Nedvěda (†73). Ten podl... - extra.cz


František Nedvěd:
Obrazem: Jeho písně hrál u táboráku skoro každý. Zemřel František
Nedvěd
- Folkový písničkář František Nedvěd v neděli večer zemřel.... - aktualne.cz


Vojta Nedvěd:
Zemřel folkový písničkář František Nedvěd. Bylo mu 73 let - Folkový písničkář František Nedvěd v neděli večer zemřel. Bylo mu 73 let. Na Fa... - ihned.cz


František Nedvěd:
Písničkář František Nedvěd zemřel, podlehl rakovině plic. Bylo mu 73 let - Téma: Kultura Václav Dvořák ČTK Dnes v 23:11 František Nedvěd Zdroj: ČTK V ned... - iprima.cz


František Nedvěd:
Český spevák bojuje s rakovinou: Podstúpil chemoterapiu a potom... Čo sa to
s ním deje?!
- PRAHA - O tom, že bojuje s rakovinou, informoval spevák František Nedvěd v decembri 2... - topky.sk


František Nedvěd:
František Nedvěd několik měsíců po vážné operaci srdce: Obrna hlasivek! - Legendární písníčkář František Nedvěd (73) nejprve v březnu prodělal operaci ... - blesk.cz


 

František Nedvěd

Fanúšikov: 3



A B C Č D E F G H CH I J K L Ľ M N O P Q R S Š T U V W X Y Z Ž



ako:
František Nedvěd - Rejdivá
František Nedvěd - Rejdivá

tlač

edituj
V originále: Listen To The Radio
Pesničku videlo 5109 návštevníkov.

Kvalita tabov : bez hodnotenia
Hodnotilo ľudí: 0 ohodnoť aj ty
Prispievateľ:
petr554
  *** Autor textu: Nedvěd František (cz) Don Williams (en) *** Autor hudby: Don Williams

Takt: 4/4

Legend
L - tied note
x - dead note
h - hammer on/pull off
b - bend
s - slide
~ - vibrato
g - ghost note
> - accentuated note
t - trill
M - palm mute
. - staccato
P - popping (bass)
S - slapping (bass)
+ - tapping
W - wide vibrato
< - fade in
w - whammy bar
= - tremolo picking
v - brush up
^ - brush down
V - pick stroke up
n - pick stroke down

gtr doprovod:

E |--------------0-----0-----------------0-----0-------|
B |--------------1-----1-----------------1-----1-------|
G |--------------0-----0-----------------0-----0-------|
D |--------2-----------------------2-------------------|
A |--3L----3-------------------------------------------|
E |--------------------------3-------------------------|


--------------0-----0-----------------0-----0-------|
--------------1-----1-----------------1-----1-------|
--------------0-----0-----------------0-----0-------|
--------2-----------------------2-------------------|
--3L----3-------------------------------------------|
--------------------------3-------------------------|


--------------0-----0-----------------0-----0-------|
--------------1-----1-----------------1-----1-------|
--------------0-----0-----------------0-----0-------|
--------2-----------------------2-------------------|
--3L----3-------------------------------------------|
--------------------------3-------------------------|


--------0--0--------0--0----|
--------1--1--------1--1----|
--------0--0--------0--0----|
-----2-----------2----------|
--3-------------------------|
--------------3-------------|


--------------0-----0-----------------0-----0-------|
--------------1-----1-----------------0-----0-------|
--------0-----0-----0-----------0-------------------|
----------------------------------------------------|
--3L----3-----------------2L----2-------------------|
----------------------------------------------------|


--------------0-----0-----------------0-----0-------|
--------------1-----1-----------------1-----1-------|
--------2-----2-----2-----------0-----0-----0-------|
----------------------------------------------------|
--0L----0-------------------------------------------|
--------------------------3-------------------------|


--------------1-----1-----------------1-----1-------|
--------------1-----1-----------------1-----1-------|
--------2-----2-----2-----------2-----2-----2-------|
----------------------------------------------------|
--------------------------3L----3-------------------|
--1-------------------------------------------------|


--------------1-----1-----1L-1--------3-------------|
--------------1-----1-----1L-1--------0-------------|
--------2-----2-----2-----2-------------------------|
--------------------------------------0-------------|
----------------------------------------------------|
--1-------------------------------------------------|


--------------0-----0-----------------0-----0-------|
--------------1-----1-----------------0-----0-------|
--------0-----0-----0-----------0-------------------|
----------------------------------------------------|
--3L----3-----------------2L----2-------------------|
----------------------------------------------------|


--------------0-----0-----------------0-----0-------|
--------------1-----1-----------------1-----1-------|
--------2-----2-----2-----------0-----0-----0-------|
----------------------------------------------------|
--0L----0-------------------------------------------|
--------------------------3-------------------------|


--------------1-----1-----------------1-----1-------|
--------------1-----1-----------------1-----1-------|
--------2-----2-----2-----------2-----2-----2-------|
----------------------------------------------------|
--------------------------3L----3-------------------|
--1-------------------------------------------------|


--------------1-----1-----1-----------3-------------|
--------------1-----1-----1-----------0-------------|
--------2-----2-----2-----2-------------------------|
--------------------------------------0-------------|
----------------------------------------------------|
--1-------------------------------------------------|


--------------0-----------------------3-------------|
--------------1-----------------0L-0--3-----0-------|
--------0-----------0-------------------------------|
----------------------------------------------------|
--3L----3L----3-------------------------------------|
--------------------------3L----3-------------------|


--------------5-----------------------0-------------|
--------1-----5-----1-----------------0-------------|
--------------------------------0-----0-----0-------|
--------------------------2L----2-------------------|
--0L----0L-0----------------------------------------|
----------------------------------------------------|


--------------1-----------------------1-------------|
--------------1-----------------------1-------------|
--------2-----------2-----------2-----------2-------|
----------------------------------------------------|
----------------------------------------------------|
--1L----1-------------------------------------------|


--------------1-----------------------1-------------|
--------------1-----------------------1-------------|
--------2-----------2-----------2-----------2-------|
----------------------------------------------------|
--------------------------3-------------------------|
--1L----1-------------------------------------------|


--------1-----------3-------|
--------1--------0--3--0----|
-----2--2--2----------------|
----------------------------|
----------------------------|
--1-----------3-------------|


--------------0-----------------------0-----0L------|
--------------1-----------------------1-----1L------|
--------0-----0-----0-----------0-----0-----0L------|
----------------------------------------------------|
--3L----3-----------------3-------------------------|
----------------------------------------------------|


--0-----------0-----0-----------------1-----1-------|
--1-----------1-----1-----------------1-----1-------|
--0-----0-----0-----0-----------2-----2-----2-------|
----------------------------------------------------|
--3L-3----------------------------------------------|
--------------------------1L----1-------------------|


----------------------------------------------------|
--------------0-----0-----------------0-----0-------|
--------0-----0-----0-----------0-----7-----7-------|
--------------0-----0-----------------5-----5-------|
----------------------------------------------------|
--3L----3-----------------3-------------------------|


--------------0-----0-----------------1-----1-------|
--------------1-----1-----------------1-----1-------|
--------0-----0-----0-----------------2-----2-------|
----------------------------------------------------|
--3-----------------------------3-------------------|
--------------------------1-------------------------|


----------------------------------------------------|
--------------3-----0-----------------0-----0-------|
--------------0-----0-----------------0-----0-------|
--------0-----------0-----------------0-----0-------|
--------------2-------------------------------------|
--3-----------------------------3-------------------|


--------------0-----0-----------------3-----3-------|
--------------1-----1-----------0-----3-----3-------|
--------0-----0-----0-----------------4-----4-------|
----------------------------------------------------|
----------------------------------------------------|
--8-----------------------3-------------------------|


--------------0-----0-----------------0-----0-------|
--------1-----------------------------0-----0-------|
--------------2-----2-----------0-----0-----0-------|
----------------------------------------------------|
--0-----------3-----3-------------------------------|
--------------------------0-------------------------|


--------------1-----1-------------------------------|
--------------1-----1-----------------0-----0-------|
--------2-----2-----2-----------0-----0-----0-------|
--------------------------------------0-----0-------|
----------------------------------------------------|
--1-----------------------3-------------------------|


--------------0-----0-----------------0-----0-------|
--------------1-----1-----------------1-----1-------|
--------0-----0-----0-----------0-----0-----0-------|
----------------------------------------------------|
----------------------------------------------------|
--8-----------------------3-------------------------|


--------------0-----0-----------------0-----0-------|
--------------1-----1-----------------1-----1-------|
--------0-----0-----0-----------0-----0-----0-------|
----------------------------------------------------|
--3-------------------------------------------------|
--------------------------3-------------------------|


--------------0-----0-----------------0-----0-------|
--------------1-----1-----------------0-----0-------|
--------0-----0-----0-----------0-------------------|
----------------------------------------------------|
--3L----3-----------------2L----2-------------------|
----------------------------------------------------|


--------------0-----0-----------------0-----0-------|
--------------1-----1-----------------1-----1-------|
--------2-----2-----2-----------0-----0-----0-------|
----------------------------------------------------|
--0L----0-------------------------------------------|
--------------------------3-------------------------|


--------------1-----1-----------------1-----1-------|
--------------1-----1-----------------1-----1-------|
--------2-----2-----2-----------2-----2-----2-------|
----------------------------------------------------|
--------------------------3L----3-------------------|
--1-------------------------------------------------|


--------------1-----1-----1-----------3-------------|
--------------1-----1-----1-----------0-------------|
--------2-----2-----2-----2-------------------------|
--------------------------------------0-------------|
----------------------------------------------------|
--1-------------------------------------------------|


--------------0-----0-----------------0-----0-------|
--------------1-----1-----------------0-----0-------|
--------0-----0-----0-----------0-------------------|
----------------------------------------------------|
--3L----3-----------------2L----2-------------------|
----------------------------------------------------|


--------------0-----0-----------------0-----0-------|
--------------1-----1-----------------1-----1-------|
--------2-----2-----2-----------0-----0-----0-------|
----------------------------------------------------|
--0L----0-------------------------------------------|
--------------------------3-------------------------|


--------------1-----1-----------------1-----1-------|
--------------1-----1-----------------1-----1-------|
--------2-----2-----2-----------2-----2-----2-------|
----------------------------------------------------|
--------------------------3L----3-------------------|
--1-------------------------------------------------|


--------------1-----1-----1L-1--------3-------------|
--------------1-----1-----1-----------0-------------|
--------2-----2-----2-----2-------------------------|
--------------------------------------0-------------|
----------------------------------------------------|
--1-------------------------------------------------|


--------------0-----------------------3-------------|
--------------1-----------------0L-0--3-----0-------|
--------0-----------0-------------------------------|
----------------------------------------------------|
--3L----3L----3-------------------------------------|
--------------------------3L----3-------------------|


--------------------------------------0-------------|
--------1-----------1-----------------0-------------|
--------------2-----------------0-----0-----0-------|
--------------2-----------2L----2-------------------|
--0L----0L-0----------------------------------------|
----------------------------------------------------|


--------------1-----------------------1-------------|
--------------1-----------------------1-------------|
--------2-----------2-----------2-----------2-------|
----------------------------------------------------|
----------------------------------------------------|
--1L----1-------------------------------------------|


--------------1-----------------------1-------------|
--------------1-----------------------1-------------|
--------2-----------2-----------2-----------2-------|
----------------------------------------------------|
--------------------------3-------------------------|
--1L----1-------------------------------------------|


--------------1-----------------------3-------------|
--------------1-----------------0-----3-----0-------|
--------2-----2-----2-------------------------------|
----------------------------------------------------|
----------------------------------------------------|
--1-----------------------3-------------------------|


--------------0-----------------------0-----0L------|
--------------1-----------------------1-----1L------|
--------0-----0-----0-----------0-----0-----0L------|
----------------------------------------------------|
--3L----3-----------------3-------------------------|
----------------------------------------------------|


--0-----------0-----0-----------------1-----1-------|
--1-----------1-----1-----------------1-----1-------|
--0-----0-----0-----0-----------2-----2-----2-------|
----------------------------------------------------|
--3L-3----------------------------------------------|
--------------------------1L----1-------------------|


----------------------------------------------------|
--------------0-----0-----------------0-----0-------|
--------0-----0-----0-----------0-------------------|
--------------0-----0-----------------0-----0-------|
----------------------------------------------------|
--3L----3-----------------3-----------3-----3-------|


--------------0-----0-----------------1-----1-------|
--------------1-----1-----------------1-----1-------|
--------0-----0-----0-----------------2-----2-------|
----------------------------------------------------|
--------------------------------3-------------------|
--8-----------------------1-------------------------|


----------------------------------------------------|
--------------3-----0-----------------0-----0-------|
--------------0-----0-----------------0-----0-------|
--------0-----------0-----------------0-----0-------|
--------------2-------------------------------------|
--3-----------------------------3-------------------|


--------------0-----0-----------------3-----3-------|
--------------1-----1-----------0-----3-----3-------|
--------0-----0-----0-----------------4-----4-------|
----------------------------------------------------|
----------------------------------------------------|
--8-----------------------3-------------------------|


--------------0-----0-----------------0-----0-------|
--------1-----------------------------0-----0-------|
--------------2-----2-----------0-----0-----0-------|
----------------------------------------------------|
--0-----------3-----3-------------------------------|
--------------------------0-------------------------|


--------------1-----1-------------------------------|
--------------1-----1-----------------0-----0-------|
--------2-----2-----2-----------0-----0-----0-------|
--------------------------------------0-----0-------|
----------------------------------------------------|
--1-----------------------3-------------------------|


--------------0-----0-----------------0-----0-------|
--------------1-----1-----------------1-----1-------|
--------0-----0-----0-----------0-----0-----0-------|
----------------------------------------------------|
--3-------------------------------------------------|
--------------------------3-------------------------|


--------------0-----0-----------------0-----0L-0----|
--------------1-----1-----------------1-----1--1L---|
--------0-----0-----0-----------0-----0-----0--2----|
----------------------------------------------------|
--3-------------------------------------------------|
--------------------------3-------------------------|


--1-----------------1-------------------------------|
--1L-1--------1--------------------1----------------|
--2-----2L----2-----------------2-----------2--0L---|
----------------------------------------------------|
----------------------------------------------------|
----------------------------------------------------|


--0L-0--------------0-------------------------------|
--0L-0--------0--------------------0-----------1L---|
--0-----0--------------------0-----------0-----2L---|
----------------------------------------------------|
----------------------------------------------------|
----------------------------------------------------|


--1-----------------1-------------------------------|
--1-----------1-----------------------1--------1L---|
--2-----2--------------------2--------------2--0L---|
----------------------------------------------------|
----------------------------------------------------|
----------------------------------------------------|


--0--------------0----------------------------------|
--1--------1--------------------------1-------------|
--0-----0-----------------------0-----------0--2----|
----------------------------------------------------|
----------------------------------------------------|
----------------------------------------------------|


--1-----------------1-------------------------------|
--1-----------1--------------------1-----------0L---|
--------2--------------------2-----------2-----0----|
----------------------------------------------------|
----------------------------------------------------|
----------------------------------------------------|


--0-----------------0-------------------------------|
--0--------0--------------------------0--------1L---|
--------0-----------------------0-----------0--2----|
----------------------------------------------------|
----------------------------------------------------|
----------------------------------------------------|


--1--------------1----------------------------------|
--1--------1--------------------------1--------1L---|
-----2-----------------------2--------------2--2L---|
----------------------------------------------------|
----------------------------------------------------|
----------------------------------------------------|


--1-----------------1-------------------------------|
--1-----------1-----------------------1--------0----|
--2-----2--------------------2-----------2----------|
-----------------------------------------------0----|
----------------------------------------------------|
----------------------------------------------------|


--3--------------3----------------------------------|
-----0-----3-----------------0--------3-----0-------|
----------------------------------------------------|
----------------------------------------------------|
----------------------------------------------------|
----------------------------------------------------|


--------0--0--------1--1----|
--------1--1--------1--1----|
-----0--0--0-----2--2--2----|
----------------------------|
--3-------------------------|
--------------1-------------|


----------------------------------------------------|
--------------0-----0-----------------0-----0-------|
--------0-----0-----0-----------0-------------------|
--------------0-----0-----------------0-----0-------|
----------------------------------------------------|
--3L----3-----------------3-----------3-----3-------|


--------------0-----0-----------------1-----1-------|
--------------1-----1-----------------1-----1-------|
--------0-----0-----0-----------------2-----2-------|
----------------------------------------------------|
--3-----------------------------3-------------------|
--------------------------1-------------------------|


----------------------------------------------------|
--------------3-----0-----------------0-----0-------|
--------------0-----0-----------------0-----0-------|
--------0-----------0-----------------0-----0-------|
--------------2-------------------------------------|
--3-----------------------------3-------------------|


--------------0-----0-----------------3-----3-------|
--------------1-----1-----------0-----3-----3-------|
--------0-----0-----0-----------------4-----4-------|
----------------------------------------------------|
--3-------------------------------------------------|
--------------------------3-------------------------|


--------------0-----0-----------------0-----0-------|
--------1-----------------------------0-----0-------|
--------------2-----2-----------0-----0-----0-------|
--------------0-----0-------------------------------|
--0-------------------------------------------------|
--------------------------0-------------------------|


--------------1-----1-------------------------------|
--------------1-----1-----------------0-----0-------|
--------2-----2-----2-----------0-----0-----0-------|
--------------------------------------0-----0-------|
----------------------------------------------------|
--1-----------------------3-------------------------|


--------------0-----0-----------------0-----0-------|
--------------1-----1-----------------1-----1-------|
--------0-----0-----0-----------0-----0-----0-------|
----------------------------------------------------|
--3-------------------------------------------------|
--------------------------3-------------------------|


--------0--0--------1--1----|
--------1--1--------1--1----|
-----0--0--0-----2--2--2----|
----------------------------|
--3-------------------------|
--------------1-------------|


----------------------------------------------------|
--------------0-----0-----------------0-----0-------|
--------0-----0-----0-----0-----0-----7-----7-------|
--------------0-----0-----------------5-----5-------|
----------------------------------------------------|
--3L----3-------------------------------------------|


--------------0-----0-----------------1-----1-------|
--------------1-----1-----------------1-----1-------|
--------0-----0-----0-----------------2-----2-------|
----------------------------------------------------|
--3-----------------------------3-------------------|
--------------------------1-------------------------|


----------------------------------------------------|
--------------------0-----------------0-----0-------|
--------------0-----0-----------0-----0-----0-------|
--------0-----------0-----------------0-----0-------|
--------------2-------------------------------------|
--3-----------------------------3-------------------|


--------------0-----0-----------------3-----3-------|
--------------1-----1-----------0-----3-----3-------|
--------0-----0-----0-----0-----------4-----4-------|
----------------------------------------------------|
--3-------------------------------------------------|
--------------------------3-------------------------|


--------------0-----0-----------------0-----0-------|
--------1-----------------------------0-----0-------|
--------------2-----2-----------0-----0-----0-------|
----------------------------------------------------|
--0-----------3-----3-------------------------------|
--------------------------0-------------------------|


--------------1-----1-------------------------------|
--------------1-----1-----------------0-----0-------|
--------2-----2-----2-----------0-----0-----0-------|
--------------------------------------0-----0-------|
----------------------------------------------------|
--1-----------------------3-------------------------|


--------------0-----0-----------------0-----0-------|
--------------1-----1-----------------1-----1-------|
--------0-----0-----0-----------0-----0-----0-------|
----------------------------------------------------|
--3-------------------------------------------------|
--------------------------3-------------------------|


--------------0-----0-----------------3-----3-------|
--------------1-----1-----------0-----3-----3-------|
--------0-----0-----0-----------------4-----4-------|
----------------------------------------------------|
--3-------------------------------------------------|
--------------------------3-------------------------|


--------------0-----0-----------------0-----0-------|
--------1-----------------------------0-----0-------|
--------------2-----2-----------0-----0-----0-------|
----------------------------------------------------|
--0-----------3-----3-------------------------------|
--------------------------0-------------------------|


--------------------1-----1-----------3-------------|
--------------6-----1-----1-----------0-------------|
--------2-----5-----2-----2-----2-----4-----0-------|
--3-----------7-----7-----3-----------0-------------|
--------------3-------------------------------------|
--1-----------------------------------3-------------|


--------------0-----0--------0L----------0----------|----||
--1-----------1-----1--------1L----------1----------|----||
--------------0-----0--------0L----------0----------|----||
----------------------------------------------------|----||
--3--------------------------3L----------3----------|----||
----------------------------------------------------|----||


gtr1 + gtr2 + bass v pdf:
https://www.dropbox.com/s/r30k1gjgy8jniv9/
Nedv%C4%9Bd%20Franti%C5%A1ek-Rejdiv%C3%A1.pdf

 
»
Tvoje obľúbené položky
Tvoje obľúbené položky
»
Najnovšie videá
Najnovšie videá

»
Tvoje obľúbené piesne
Tvoje obľúbené piesne
»
Najnavštevovanejšie piesne
Najnavštevovanejšie piesne
Devatenáct - akordy a text

Cherokee Bill - akordy a text

Můj zvon - akordy a text

Valčíček - text

Zlatá rybka - akordy a text

Rozchod - akordy a text

Jako ptáci - akordy a text

Co mám nejraději - akordy a text

Rejdivá - akordy a text

Devatenáct - taby

Jsem jenom chlap - akordy a text

Tvou vůni stále znám - akordy a text

Milovaný řemeslo - akordy a text

To jsem já - text

Rejdivá - taby

Jablůňka - akordy a text

Písnička je lék - akordy a text

Řemeslo - akordy a text

Klekání - akordy a text

Kočovní herci - akordy a text

viac

»
Nové albumy interpreta
Nové albumy interpreta



home | interpreti | register piesní | cd & dvd shop | pripomienky/nápady | kontakt | ochrana údajov | inzercia