Backyard Babies


piesne (6)

  texty (2)
  akordy (1)
  taby (3)
  preklady (0)


články (2)
Fotky (15)
diskusia
videá
diskografia
v obchode
odkazy
koncerty
sťahuj



pridaj vlastný článok

Backyard Babies:
Backyard Babies zaútočí na Prahu - musicserver.cz


Backyard Babies:
Geniové prozaičnosti, mistři prozíravé triviality - musicserver.cz


 

Backyard Babies

Fanúšikov: 0



A B C Č D E F G H CH I J K L Ľ M N O P Q R S Š T U V W X Y Z Ž



ako:
Backyard Babies - Brand New Hate
Backyard Babies - Brand New Hate

tlač

edituj
Pesničku videlo 2871 návštevníkov.

Kvalita tabov : bez hodnotenia
Hodnotilo ľudí: 0 ohodnoť aj ty
  *** Autor textu: Backyard babies *** Autor hudby: Backyard babies
Intro 

E D/e D/e D A D A

|------------------------------|

|------------------------------|

|--------7/9-7/9-7---7---------|

|-2------7/9-7/9-7-7-7-7-------|

|-2------5/7-5/7-5-7-5-7-------|

|-0(x3)------------5---5(x4)---|



Verse

e A B D A D A D D/e D/e D A D A D A

|-----------------------------------------------------|

|-----------------------------------------------------|

|-9----------7---7---7----7/9-7/9-7---7----7----------|

|-9----7--9--7-7-7-7-7----7/9-7/9-7-7-7-7--7----7-----|

|-7----7--9--5-7-5-7-5----5/7-5/7-5-7-5-7--5----7-----|

|------5--7----5---5----------------5---5-------5-----|



Chorus

e e e e D A

|---------------------------|

|---------------------------|

|----9----9----9----9-7-----|

|-xx-9-xx-9-xx-9-xx-9-7-7---|

|-xx-7-xx-7-xx-7-xx-7-5-7---|

|-00---00---00---00-----5---|



Break

E D A E E A B

|----------------------------------------------0----------|

|----------------------------------------------0----------|

|---------7------------------------------------x----------|

|-2-xxx-7-7------2--------------------2--------2----7-9---|

|-2-xxx-5-7------2-----------------5--2--------2----7-9---|

|-0-xxx---5(x4)--0-------------5-7----0--------0----5-7---|


 
»
Tvoje obľúbené položky
Tvoje obľúbené položky
»
Najnovšie videá
Najnovšie videá

»
Tvoje obľúbené piesne
Tvoje obľúbené piesne
»
Najnavštevovanejšie piesne
Najnavštevovanejšie piesne
»
Nové albumy interpreta
Nové albumy interpreta



home | interpreti | register piesní | cd & dvd shop | pripomienky/nápady | kontakt | ochrana údajov | inzercia