Desmod


piesne (300)

  texty (208)
  akordy (121)
  taby (49)
  preklady (0)


články (718)
Fotky (67)
diskusia
videá
diskografia
v obchode
odkazy
koncerty
sťahuj



pridaj vlastný článok

Desmod:
Obrovský šok pre fanúšikov: Kapela Desmod sa rozpadá... Odchod ŠTYROCH
členov!
- BRATISLAVA - Kapela Desmod vznikla ešte v roku 1996, no prešla niekoľkými výraznými... - topky.sk


Desmod:
Desmod prekvapil spoluprácou s raperom. Vypočujte si pieseň Kométa (pre
Gumpa)
- Pripravovaný český film Gump (pes, ktorý naučil ľudí žiť) prinesie v roku 2021 n... - topky.sk


Desmod:
Kuly z Desmodu v slzách: Dangl a Adela ho takmer zničili... Plakal ako malý
chlapec!
- BRATISLAVA - Tak toto tu ešte nebolo! Šou 2na1 aktuálne patrí medzi najpopulárnejši... - topky.sk


Desmod:
Desmod oslávi 20 rokov na scéne megakoncertom - RÁDIO KOŠICE, Dnes | 11:32 Megakoncert s názvom Vyrobený pre teba uvedie 9. októbra... - radiokosice.sk


Desmod:
Desmod oslávi 20 rokov na scéne megakoncertom Vyrobený pre teba - 0 Na snímke skupina Desmod. Foto: archív skupiny Desmod Skupina Desmod patrí k šp... - teraz.sk


Desmod:
Kuly a PACI PAC, to je kombinácia Paci Pac a kamaráti pokračujú v mega
úspešnom turné aj tento rok
- StančoStančo13. februára 2020no commentdesmodkulypaci pac 0 SHARES Hudobno – vzde... - rukahore.sk


Desmod:
Kuly potešil priaznivcov Desmodu: Kapela skrýva hotový poklad - 110 zdieľaní Zdieľaj Diskusia / 2 Zapnúť upozornenia Máte tip? Dajte nám vedi... - cas.sk


Desmod:
Kuly sa pochválil záberom zo synovej stužkovej: To sú ale fešáci - hitky.sk


Desmod:
Desmod chystá rockový megakoncert. Niektoré staré skladby zahrá naživo
prvýkrát
- zoznam.sk


Desmod:
Skupina Desmod zahrá 22. novembra rockový megakoncert v Púchove!


 

Desmod

Fanúšikov: 5



A B C Č D E F G H CH I J K L Ľ M N O P Q R S Š T U V W X Y Z Ž



ako:
Desmod - Zhorí všetko čo mám + taby 1.gitara
Desmod - Zhorí všetko čo mám + taby 1.gitara

tlač

edituj

export
agama

export
txt
Poznámka: Rytmus musíte objavi? sami. Len sa zapo?úvajte do pesni?ky a zahráte to...

Pesničku videlo 51219 návštevníkov.

Kvalita akordov : bez hodnotenia
Hodnotilo ľudí: 0 ohodnoť aj ty
Transpozícia:   [+1 +2 -1 -2]

Intro

E |----------|
B |-----1----|
G |----------| 4x
D |---2--2---|
A |-3------3-|
E |----------|

Intro pokračovanie:

E |--------------------------------------------------------------------|
B |-----1-------1-------1----------------1-------1---------------------|
G |-----------------------------0--------------------------2-------4---|
D |---2---2---2---2---2---2---0---0------------------------------------|
A |-3---3---2---2---0---0--------------3---3---2---2-----3---3---5---5-|
E |-------------------------3---3----1---1---3---3-----5---5---7---7---|




CMámC/H tvoj liAmist, vrC/Gaj musíš ísť.
Zhorí Fvšetko, Gčo mámAmi ak oGdídeš.
CC/HNič len tAmima, obC/Gklopí ma.
Zhorí Fvšetko, Gčo mám Amia ty tGo vieš.

R. Chcel som nájsť, záchranný pás.
Ktorý udrží nás, už nemám síl.
Tak pýtam sa, či vieš, že ja,
nie som ten, kto to v nás zapálil.

Solo Gitara + pôvodný doprovod 1. gitary:



E |--------------8---|---------8----|---------|
B |-5---6---5-6----8-|--6--5-6---8--|-6---5~--|
G |------------------|--------------|---------|
D |------------------|--------------|---------|
A |------------------|--------------|---------|
E |------------------|--------------|---------|

1x 7x 1x




Už len púšť, dám prst na púšť.
Zhorí všetko, čo mám ak odídeš.
Dosť už sĺz, tak zostať skús.
Zhorí všetko, čo mám a ty to vieš.

R. Chcel som nájsť, záchranný pás.
Ktorý udrží nás, už nemám síl.
Tak pýtam sa, či vieš, že ja,
nie som ten, kto to v nás zapálil.

intro 1x
Solo Gitara + pôvodný doprovod 1. gitary:



E |-0--0--0----333-1-1-0-0---------------------111-0-0---|
B |------------------------3-3-1-1---1-3-1-0-----------3-|
G |------------------------------------------------------|
D |------------------------------------------------------|
A |------------------------------------------------------|
E |------------------------------------------------------|

E |----------013/8--8---8---7---7-10-8---8---7---7-10-10/12-|
B |-3-1-1-013---------8---8---8--------8---8---8------------|
G |---------------------------------------------------------|
D |---------------------------------------------------------|
A |---------------------------------------------------------|
E |---------------------------------------------------------|

E |-10-10-8---8-8-8-7-8-8/10-10-8-10-10/12-12~--------------|
B |---------------------------------------------------------|
G |---------------------------------------------------------|
D |---------------------------------------------------------|
A |---------------------------------------------------------|
E |---------------------------------------------------------|



Cítim chlad, posledný krát.
Zhorí všetko, čo mám ak odídeš.
Nič len tma, obklopí ma.
Zhorí všetko, čo mám a ty to vieš.

2x !spolu so solom číslo 2!
R. Chcel som nájsť, záchranný pás.
Ktorý udrží nás, už nemám síl.
Tak pýtam sa, či vieš, že ja,
nie som ten, kto to v nás zapálil.

intro 2x
Solo Gitara + pôvodný doprovod 1. gitary:




E |-13-13-13-13-12-12-12--10-10-10-10-8 -8 -8 --|
B |-15-15-15-15-13-13-13--12-12-12-12-10-10-10--| --------|
G |---------------------------------------------| 2x |
D |---------------------------------------------| |
A |---------------------------------------------| |
E |---------------------------------------------| |
| 2x :)
E |-8-10-8-------------------------------------------------| |
B |--------10----10----12----12----13----13----15----15----| |
G |-----------10----10----12----12----14----14----16----16-| |
D |--------------------------------------------------------| |
A |--------------------------------------------------------| --------|
E |--------------------------------------------------------|



intro 2x



 
»
Tvoje obľúbené položky
Tvoje obľúbené položky
»
Najnovšie videá
Najnovšie videá

»
Akordové schémy
Akordové schémy
»
Tvoje obľúbené piesne
Tvoje obľúbené piesne
»
Najnavštevovanejšie piesne
Najnavštevovanejšie piesne
Vŕba - akordy

Na tebe závislý - akordy a text

Anjel - akordy

Chýbanie - akordy

V dolinách - akordy a text

Vyrobená pre mňa - akordy a text

Pár Dní - akordy a text

V Dolinách - text

Nevrav mi aký som - akordy

Aby bolo jasne - akordy a text

Kyvadlo - akordy a text

Chýbanie - akordy

Zhorí všetko, čo mám (správne) - akordy a text

Zober ma domov - akordy a text

Možno mi odpustíš - akordy a text

Zostane ticho (od Sonyho) - akordy a text

Vyrobená pre mňa (celé) - akordy

Niekto ti to povie skôr než ja - akordy a text

Za tebou - akordy a text

Zhorí všetko čo mám + taby 1.gitara - akordy a text

viac

»
Nové albumy interpreta
Nové albumy interpreta



home | interpreti | register piesní | cd & dvd shop | pripomienky/nápady | kontakt | ochrana údajov | inzercia