Kabát


piesne (545)

  texty (255)
  akordy (177)
  taby (248)
  preklady (0)


články (453)
Fotky (64)
diskusia
videá
diskografia
v obchode
odkazy
koncerty
sťahuj



pridaj vlastný článok

Kabát:
VIDEO: Pepa Vojtek ON AIR: Můj první honorář byly sušenky Dukla - Od zábavové kapely po největší českou hudební skupinu, která drží hned několik... - musicserver.cz


Kabát:
Pepa Vojtek promluvil o budoucnosti kapely Kabát: Koncertů bude letos nula - Se zpěvákem Pepou Vojtkem (55) jsme se potkali po dlou... - super.cz


Kabát:
Kabát či Olympic místo koncertů píší písně, jazzman zve fanoušky k
sobě
- Na všem je třeba si najít to dobré. Nedobrovolnou pauzu v koncertování využili ně... - idnes.cz


Kabát:
Ani Lucie a Kabát nyní netáhnou - Summer Areny byly zrušeny pro nezájem
diváků
- Letošní léto je v hudební oblasti chudší nejen o velké festivaly se zahraničními...


Čechomor:
Vojta Dyk s B-Side Bandem odehraje velké koncerty v Brně, Praze a Liberci - Vedle nejznámějších českých kapel Kabát, Lucie či Čechomor se na projektu Summer...


Chinaski:
Špičky české hudební scény zahrají v Summer Arenách po celé republice.
Vystoupí Kabát, Chinaski, Lucie, Daniel Landa a mnoho dalších
- Unikátní projekt s názvem Summer Arena se zastaví v šesti krajských městech, zpr...


Kabát:
Kabát přeložil turné na příští rok. V létě zahraje na akcích projektu
Summer Arena 2020
- Vzhledem k situaci kolem pandemie koronaviru přesunula teplická rocková skupina Kabá...


Kabát:
Když se ještě mohlo ven | Petr Tibi v punkovém zákulisí s Plexis a Třemi
sestrami, ale i na stadionu s Kabátem
- Vydáno před 21 hodinami Fotografo vé iREPORTu se v aktuálním seriálu vrací d... - ireport.cz


Kabát:
Skupina Kabát sa pripravuje na Turné 2020 po Slovensku - ...


Kabát:
Tak jde čas s Kabátem - radiobeat.cz


 

Kabát

Fanúšikov: 20



A B C Č D E F G H CH I J K L Ľ M N O P Q R S Š T U V W X Y Z Ž



ako:
Kabát - Malá dáma
Kabát - Malá dáma

tlač

edituj

export
agama

export
txt
Rok vzniku: 2006
Poznámka: tiborec@gmail.com

Pesničku videlo 258792 návštevníkov.

Kvalita akordov :
Hodnotilo ľudí: 12 ohodnoť aj ty
Prispievateľ:
tiBorec
Transpozícia:   [+1 +2 -1 -2]   *** Autor textu: Milan Špalek *** Autor hudby: Ota Vá?a
{Intro}

(v odlišném rytmu)
e |-----------------------|-----------------------|
h |--------0--------------|--------0--------------|
G |-----0-----0-----0-----|-----0-----0-----0-----|
D |--2-----------4-----4--|--2-----------4-----4--|
A |-----------------------|-----------------------|
E |-----------------------|-----------------------|



{Intro – s perkusemi}

{Intro – s doprovodem}

Emi Emi Asus2
e |--------------------------|--------------------------|--------------------------|
h |-----------0--------------|-----------0--------------|-----------0--------------|
G |--------0-----0-----0-----|--------0-----0-----0-----|--------0-----0-----0-----|
D |-----2-----------4-----4--|-----2-----------4-----4--|-----2-----------4-----4--|
A |--------------------------|--------------------------|--0-----------------------|
E |--0-----------------------|--0-----------------------|--------------------------|

Asus2 C H Emi
|--------------------------|--------------------------|--------------------------|--------|
|-----------0--------------|-----------0--------------|-----------0--------------|--------|
|--------0-----0-----0-----|--------0-----0-----0-----|--------0-----0-----0-----|--0-----|
|-----2-----------4-----4--|-----2-----------4-----4--|-----2-----------4-----4--|-----2--|
|--0-----------------------|--3-----------------------|--2-----------------------|--------|
|--------------------------|--------------------------|--------------------------|--------|




EmiUtrhla trávu a začla Asus2hrát,
ta malá dáma z předměsCtí,
co umí Hlidem z dlaní Emičíst,
Emitam kočky z rána mívaj Asus2hlad
po noci plný neřesC
je pohlaHdí a dá jim Emijíst.

AmiPo tmě se Asus2toulá a ve dne Emispí
a její oči vědí víc než Amimí,
došly mi Asus2slova, já stál tam Cjen.
S touhle Hjedinou bych Emizemřel.

®: EmiS touhle bych Czemřel v jedinej Gden
a jestli Hvám to Hsus4nestaEmičí,
kdyby tam Cstála stovka Gžen,
vyzvu ji H7k tanci a to H7/AnetanEmičím.

{Intro s doprovodem}

Tam za tratí svý doupě má,
mince po kašnách posbírá
a pak je skládá na kolej.
Staví si chrám, plechovej most,
už po něm kráčí první host,
tak ať ho nohy nebolej.

Prošla si peklem a kouzla zná,
přejetý mince počítá
a kdo ji spatří je zatracen.
S touhle jedinou bych zemřel.

®

{Bridge}
Budu si Emipamatovat na tu Gchvíli,
když hrála Cznělo to jak PagaH7nini
a já už Emivěděl, že jsem ztraceGnej,
zeptal se Cza kolik s pocitem H7viny.

… tou tou tou tou tou …

2x ®




Asus2 x02200
Hsus4 x24452
H7/A x01202

 
»
Tvoje obľúbené položky
Tvoje obľúbené položky
»
Najnovšie videá
Najnovšie videá

»
Akordové schémy
Akordové schémy
»
Tvoje obľúbené piesne
Tvoje obľúbené piesne
»
Najnavštevovanejšie piesne
Najnavštevovanejšie piesne
Pohoda - akordy a text

Šaman - akordy a text

Malá dáma - akordy a text

Balada o špinavejch fuseklích - akordy a text

Na sever - akordy a text

Colorado - akordy a text

Moderní devče - akordy a text

Stará Lou - akordy a text

Houby magický - akordy a text

Bára... Konečně celá a správně!!! (Kraviny opraven - akordy a text

Starej bar - akordy a text

Všechno bude jako dřív - akordy a text

Corrida - akordy a text

Kdoví jestli - akordy a text

Bára - akordy a text

Krutý krtek Joy - akordy a text

Burlaci - akordy a text

Western Boogie - akordy

Žízeň - akordy a text

Brousíme nože - akordy a text

viac

»
Nové albumy interpreta
Nové albumy interpreta



home | interpreti | register piesní | cd & dvd shop | pripomienky/nápady | kontakt | ochrana údajov | inzercia