Kečup


piesne (9)

  texty (8)
  akordy (8)
  taby (0)
  preklady (0)


články (3)
Fotky (5)
diskusia
videá
diskografia
v obchode
odkazy
koncerty
sťahuj



pridaj vlastný článok

Kečup:
Legendární západočeský Kečup potěšil KD Mrákov21. května 2019
(16:08)
- musicgate.cz


Kečup:
Kečup jako tatarka - musicserver.cz


Kečup:
- akordy.sk


 

Kečup

Fanúšikov: 0



A B C Č D E F G H CH I J K L Ľ M N O P Q R S Š T U V W X Y Z Ž



ako:
Kečup - Kousek Tebe
Kečup - Kousek Tebe

tlač

edituj

export
agama

export
txt
Rok vzniku: 2006
Pesničku videlo 9809 návštevníkov.

Kvalita akordov : bez hodnotenia
Hodnotilo ľudí: 0 ohodnoť aj ty
Transpozícia:   [+1 +2 -1 -2]   *** Autor textu: Michal Sýkora *** Autor hudby: Martin Ruttner
Předehra:


e-----7--7--5--5--------------------------
B-----------------8--8--6--6--------------
G-----------------------------------------
D-----------------------------------------
A-----------------------------------------
E-----------------------------------------

e-----------------------------------------
B-----6--6--5-----6--6--5-----------------
G--------------5-----------5--------------
D-----------------------------------------
A-----------------------------------------
E-----------------------------------------

e-----7--7--5--5--------------------------
B-----------------8--8--6--6--------------
G-----------------------------------------
D-----------------------------------------
A-----------------------------------------
E-----------------------------------------

e-----------------------------------------
B-----6--6--5-----5--5--------------------
G--------------5--------7--7--4--5--------
D-----------------------------------------
A-----------------------------------------
E-----------------------------------------



Já už tě Amipřečtěnou jako Gpovídek pár
Z jedný i z Amidruhý kapsy Gmám
Mně vůbec Aminevadí to co Gse říká
Jejich Amipravdu nehleGdám
DVarování Dnebo lhaní
DV jednou splynou, Djá je rozeznám

Každej tě dobře zná a dobře ví
Všechny tvý chyby, co jsi zač
Záplaty na duši o těch nic netuší
Nechtějí slyšet tichej pláč
V koutě stojí, kdo se bojí
Svoje místo každej najde sám

®:
AmiKousek Fsebe do tebe Cdám
Jen ať se Gvšichni smějou
AmiKousek Fsebe pro tebe CmámG
AmiKousek Fsebe do tebe Cdám
Je mi fuk Gjak to berou
AmiKousek Gsebe pro tebe Cmám

Nikdo z vás nemá na svůj rozum glejt
Přiletí kámen, za ním lež
Můžeš to sbalit, můžeš to nechat bejt
Můžeš se bránit jak jen chceš

®:
Kousek sebe do tebe dám
Jen ať se všichni smějou
Kousek sebe pro tebe mám
Kousek sebe do tebe dám
Je mi fuk jak to berou
Kousek sebe pro tebe mám


 
»
Tvoje obľúbené položky
Tvoje obľúbené položky
»
Najnovšie videá
Najnovšie videá

»
Akordové schémy
Akordové schémy
»
Tvoje obľúbené piesne
Tvoje obľúbené piesne
»
Najnavštevovanejšie piesne
Najnavštevovanejšie piesne
Je to dávno - akordy a text

Lilie - akordy a text

Kousek Tebe - akordy

Slepá - akordy a text

Slepá (od Oggyho) - akordy a text

Je to dávno (2.) - akordy a text

Nancy - akordy a text

Zlý časy - akordy a text

Izabela IX. - text

»
Nové albumy interpreta
Nové albumy interpreta



home | interpreti | register piesní | cd & dvd shop | pripomienky/nápady | kontakt | ochrana údajov | inzercia