Abba


piesne (311)

  texty (201)
  akordy (46)
  taby (7)
  preklady (69)


články (277)
Fotky (83)
diskusia
videá
diskografia
v obchode
odkazy
koncerty
sťahuj



pridaj vlastný článok

Abba:
Kompilace 'Abba Gold' se stala prvním albem, které v britské hitparádě
strávilo tisíc týdnů
- Skupina Abba si do dlouhé sbírky rekordů před pár dny připsala další. Její besto... - musicserver.cz


Abba:
ABBA dosiahla rekord. Jej album sa v britskom rebríčku udržal 1000 týždňov - Výberový album švédskej popovej skupiny Abba s názvom ABBA Gold: Greatest Hits sa st... - zoznam.sk


Abba:
ABBA chystá po čtyřiceti letech nové písničky - Švédská popová čtveřice se po čtyřiceti letech od vydání posledního alba The V... - idnes.cz


Abba:
Pokus o koncert skupiny ABBA - Pokusit se pozvat legendární švédskou popovou čtveřici ABBA na italský Sanremo Mus... - novinky.cz


Abba:
Legendárne návraty: ABBA – Dancing Queen - Legendárny hit rozobratý na súčiastky! ...


Abba:
Legendární ABBA se vrací: Skupina vydává 5 nových písní a posílá své
mladší já na turné
- Legendární švédská skupina ABBA ve složení Benny Andersson (73), Anni-Frid ...


Abba:
Waterloo od skupiny ABBA bylo nejlepší písní Eurovize - Včera 8:59jaš, Právo Písnička Waterloo švédské kapely ABBA vyhrála fanouškovsk... - novinky.cz


Abba:
Skupina ABBA vydá tento rok novú tvorbu, tvrdí Björn Ulvaeus - včera o 13:00 | redakcia Člen švédskej popovej skupiny ABBA Björn Ulvaeus oznámi... - zoznam.sk


Abba:
Spevák z ABBY miloval kolegyňu: Jeho srdce už roky patrí tejto žene - Björn Ulvaeus Björn Ulvaeus Zdroj: SITA včera o 00:00 ŠTOKHOLM - Má slabo... - topky.sk


Abba:
Agnetha Fältskog, hviezda skupiny ABBA, oslavuje 70. narodeniny - Agnetha Fältskog, jedna zo slávnej švédskej hviezdnej štvorice ABBA, oslávi 70. nar... - dobrenoviny.sk


 

Abba

Fanúšikov: 0



A B C Č D E F G H CH I J K L Ľ M N O P Q R S Š T U V W X Y Z Ž



ako:
Abba - Arrival (zakladni Tabelatura)
Abba - Arrival (zakladni Tabelatura)

tlač

edituj
V originále: 1976
Pesničku videlo 5391 návštevníkov.

Kvalita tabov : bez hodnotenia
Hodnotilo ľudí: 0 ohodnoť aj ty
Autor hudby: ABBA
part 1

e-----------1--1--1--2--1-------------------------------
b-----2--4-----------------2--4--2--1-----------1--2--2-
g--1-----------------------------------3--1--3----------
d-------------------------------------------------------
a-------------------------------------------------------
E-------------------------------------------------------

part 2

e--------9--9--11--9--6--8----6--6--8--6--4--1--
b--6--9-----------------------------------------
g-----------------------------------------------
d-----------------------------------------------
a-----------------------------------------------
E-----------------------------------------------

part 3

e--------1--1--1--2--1-------------------------------
b--2--4-----------------2--4--2--1-----------1--2--2-
g-----------------------------------3--1--3----------
d----------------------------------------------------
a----------------------------------------------------
E----------------------------------------------------

part 4

e--1--1--1--2--1-------------------------------
b-----------------2--4--2--1-----------1--2--2-
g-----------------------------3--1--3----------
d----------------------------------------------
a----------------------------------------------
E----------------------------------------------

 
»
Tvoje obľúbené položky
Tvoje obľúbené položky
»
Najnovšie videá
Najnovšie videá

»
Tvoje obľúbené piesne
Tvoje obľúbené piesne
»
Najnavštevovanejšie piesne
Najnavštevovanejšie piesne
The Winner Takes It All - akordy a text

Honey Honey - text

Sos - akordy a text

Happy New Year - akordy

Arrival (zakladni Tabelatura) - taby

Our Last Summer - akordy a text

Lay all your love on me - akordy a text

Fernando - akordy a text

Dancing Queen - text

Slipping Through My Fingers - text

One Of Us - akordy a text

Andante, Andante - Softly Moving - preklad

Hasta Manana - preklad

Andante Andante - text

Ah, Vilka Tider - text

Monsieur, Monsieur - text

Voulez-vous - text

Dancing Queen - akordy a text

Mama Mia - akordy a text

Chiquitita - akordy a text

viac

»
Nové albumy interpreta
Nové albumy interpreta



home | interpreti | register piesní | cd & dvd shop | pripomienky/nápady | kontakt | ochrana údajov | inzercia