Dan Bárta


piesne (35)

  texty (27)
  akordy (10)
  taby (2)
  preklady (4)


články (381)
Fotky (27)
diskusia
videá
diskografia
v obchode
odkazy
koncerty
sťahuj



pridaj vlastný článok

Dan Bárta:
Dan Bárta a Big Band Českého rozhlasu: tri výročia a jeden album pre
radosť
- Spevák Dan Bárta nahral s big bandom Českého rozhlasu spoločný album s kurióznym n... - zoznam.sk


Dan Bárta:
Spevák Dan Bárta nahral s big bandom Českého rozhlasu spoločný album - S humorom jemu vlastným ho nazval I Killed This Song At Karaoke Last Night. Titul vych...


Dan Bárta:
Dan Bárta natočil album a chystá koncerty s Rozhlasovým Big Bandem Gustava
Broma
- Praha - Zpěvák Dan Bárta známý z rockové skupiny Alice a současného projektu ... - ceskenoviny.cz


Dan Bárta:
Festival Kulturák prinesie do Turian legendárneho Dana Bártu aj špičku
domácej alternatívnej scény
- 2. ročník multižánrového open-air Festivalu Kulturák sa uskutoční 27.-28. Augusta... - ahudba.sk


Dan Bárta:
Alice & Dan Bárta zahrají koncem července v Pivovaru Clock v Potštejně - "Yeah!", to je debutové album jedné z nejzásadnějších českých rockových kapel 90... - musicserver.cz


Dan Bárta:
Nabídku pražských hudebních scén od srpna rozšíří Prague Kemp Letňany - Praha - Nabídku pražských hudebních scén od srpna rozšíří Prague Kemp Letňa... - ceskenoviny.cz


Dan Bárta:
Zoskupenie Vlčie maky vydáva album Horehronie. Spája folklór s džezom - Po albume Vlčie maky - Podpoľanie vychádza druhý štúdiový album hudobného zoskupe... - zoznam.sk


Alice:
ALICE s Danem Bártou vystoupí v Pivovaru Clock v Potštejně - „Yeah!“, debutové album jedné z nejzásadnějších českých rockových kapel 90. ... - spark


Dan Bárta:
Záchrana zoologických zahrad, kapely podpoří zvířátka online koncertem - V neděli 9. května vystoupí na podporu Unie zoologických zahrad v Čechách a na Slov... - extra.cz


Dan Bárta:
Dan Bárta má šanci stát se podvanácté držitelem ceny Anděl: Za co se
zpěvák omlouvá fanouškům?
- Desku Kráska a zvířený prach stihl zpěvák ... - super.cz


 

Dan Bárta

Fanúšikov: 1



A B C Č D E F G H CH I J K L Ľ M N O P Q R S Š T U V W X Y Z Ž



ako:
Dan Bárta - On My Head
Dan Bárta - On My Head

tlač

edituj
Rok vzniku: 2006
Pesničku videlo 11311 návštevníkov.

Kvalita tabov :
Hodnotilo ľudí: 6 ohodnoť aj ty
  *** Autor textu: Dan Bárta *** Autor hudby: Dan Bárta

1. kytara
nevím jak se hraje tahle část ale když budu mít
/: čas tak to dodělám
/-5------5-------2--------2--------3--------5-----------------------------/
/-7------5-------2--------3--------3--------5-----------------------------/
/-7------7-------2--------2--------4--------6-----------------------------/
/-7------7-------4--------4--------5--------7-----------------------------/
/-5------5-------4--------4--------5--------7-----------------------------/
/-x------x-------x--------x--------x--------x-----------------------------/
Tady ještě musíte vychytat rytmus, protože se mi to nechce psát.



2. kytara
Přidává se o 2 akordy později

/ / /-x----x----x--x----x----x----x--x----x----x----x--x----x----x----x--x- /-x----x----x--x----x----x----x--x----x----x----x--x----x----x----x--x- /-x----x----x--x----x----x----x--x----x----x----x--x----x----x----x--x-/
/-4----4----4--4----5----5----5--5----5----5----5--5----7----7----7--7- /-4----4----4--4----5----5----5--5----5----5----5--5----7----7----7--7-/
/-2----2----2--2----3----3----3--3----3----3----3--3----5----5----5--5-/


Basa

/-------------------------------------------------------------------------/
/-------------------------------------------------------------------------/
/-5-5-5-5-5-5-5-5---------------------------------------------------------/
/-----------------2-2-2-2-2-2-2-2-3-3-3-3-3-3-3-3-5-5-5-5-5-5-5-5-5-5-5-5-5-5-5-5


/-------------------------------------------------------------------------/
/-------------------------------------------------------------------------/
/-5-5-5-5-5-5-5-5---------------------------------------------------------/
/-----------------2-2-2-2-2-2-2-2-3-3-3-3-3-3-3-3-5-5-5-5-5-5-5-5-7-7-7-7-7-7-7-7


Riff

H/--14-15-14---------/
G/----------14-------/


Takhle se to hraje pouze na začátku a v refrénu.




Basa
/-------------------------------------------------------------------------/
/-------------------------------------------------------------------------/
/-5-5---5--5-5---5--------------------------------------------------------/
/------------------2-2---2--2-2---2-3-3---3--3-3/3---3--3-3-5/--5--5-5-/

Tohle hraje basovka, když se jen zpívá a hraje na bicí.


 
»
Tvoje obľúbené položky
Tvoje obľúbené položky
»
Najnovšie videá
Najnovšie videá

»
Tvoje obľúbené piesne
Tvoje obľúbené piesne
»
Najnavštevovanejšie piesne
Najnavštevovanejšie piesne
On my head - akordy a text

We All - text

We all - akordy a text

Kontrabásník - akordy

Mestem - text

Píseň hraboše (Báječná show) - akordy a text

Na nebi svítí (Please Come Home For Christmas) - akordy a text

písen hraboše - akordy a text

ON MY HEAD - text

Za poryvu - text

We all - taby

Na i v ní - text

Planetam - text

Ani náhodou - akordy a text

On My Head - text

Klidná - akordy a text

Wo-Ba-Si-U - akordy a text

On my head - preklad

On My Head - taby

On My Head - Snowboarďáci - text

viac

»
Nové albumy interpreta
Nové albumy interpreta



home | interpreti | register piesní | cd & dvd shop | pripomienky/nápady | kontakt | ochrana údajov | inzercia