Lucie


piesne (159)

  texty (130)
  akordy (97)
  taby (18)
  preklady (1)


články (324)
Fotky (18)
diskusia
videá
diskografia
v obchode
odkazy
koncerty
sťahuj



pridaj vlastný článok

Lucie:
Série vzácných letních koncertů 'Dotkni se Lucie' startuje už příští
týden
- Kapela Lucie kvůli přetrvávající koronavirové krizi a omezením pro kulturní akce ... - musicserver.cz


Lucie:
Lucie vyráží v létě na turné, podzimní šňůru přesouvá - Kapela Lucie kvůli přetrvávající koronavirové krizi a omezením pro kulturní akce ... - IREPORT


Lucie:
Lucie přesunula koncerty se symfonickým orchestrem, připravila malé turné - Praha - Poprocková skupina Lucie přesunula letošní turné s Filharmonií Hradec K... - ceskenoviny.cz


Lucie:
ROZHOVOR | Lucie: Trumpety nebo Černí andělé dostávají se symfoňákem
neskutečný koule
- Lucie má letos nabitý rok. Ještě do léta vydá symfonické album, které bude souča... - IREPORT


Lucie:
„Akoby nám chýbal kus našej duše,“ hovorí kapela LUCIE. Na jeseň 2021
plánujú veľké veci.
- Obľúbená česká kapela LUCIE má za sebou ťažké obdobie, ktoré však dokázali pr... - bleskovky.sk


Lucie:
Lucie se připravuje na turné, vydá nové album a fotoknihu - Kapela Lucie se rozpomněla na rok 2002, kdy v doprovodu Bambini di Praga a Českého ná... - idnes.cz


Lucie:
Skupina Lucie do plánovaného turné vydá fotoknihu a nové album - Praha - Skupina Lucie do svého plánovaného turné začínajícího 27. září v O... - ceskenoviny.cz


Lucie:
ROZHOVOR | Lucie: Hudba je dnes mnohem agresivnější, což odráží vztahy
mezi lidmi (2. část)
- Co si členové Lucie mysleli v roce 2000 o taneční a elektronické hudbě, která tehd... - IREPORT


Lucie:
ROZHOVOR | Lucie: Zjistili jsme, že máme asi osm fanoušků po celém světě!
(1. část)
- V nezvyklém roce 2020 uplynulo 30 let od vydání debutového a eponymního alba, jímž... - IREPORT


Lucie:
Obrazem: Možná na dlouho poslední koncert. Lucie zahrála na Výstavišti - 2000 lidí bylo rozdělených do dvou sektorů. Publikum koncert z větší části prost... - aktualne.cz


 

Lucie

Fanúšikov: 8



A B C Č D E F G H CH I J K L Ľ M N O P Q R S Š T U V W X Y Z Ž



ako:
Lucie - Chci zas v tobě spát - přesně
Lucie - Chci zas v tobě spát - přesně

tlač

edituj

export
agama

export
txt
Poznámka: Je to stoprocentn? p?esný. Sta?í podladit kytaru o p?l tonu a jste doma. Tedy v ope?e.

Pesničku videlo 206219 návštevníkov.

Kvalita akordov :
Hodnotilo ľudí: 10 ohodnoť aj ty
Transpozícia:   [+1 +2 -1 -2]   *** Autor textu: Lucie :-) *** Autor hudby: Lucie;-)

2x intro:

G G/Fis G/E C
e-----3-----------3------------3-----------0-------
h-------3---3-------3---3--------3---3-------1---1-
g---0-----0-----0-----0-----0------0-----0-----0---
D--------------------------------------------------
A--------------------------------------3-----------
E-3-----------2-----------0------------------------

sloka:

e-------3---------------3---------------3---------------3---------
h-----3---3---3-------3---3---3-------3---3---3-------3---3-------
g---0-------0---0---0-------0---0---0-------0---0---0-------0-----
D-----------------------------------------------------------------
A-----------------------------------------------------------------
E-3---------------3---------------2---------------2-----------3-2-
Mlčíš a svět.. Záhadou

e-------3---------------3---------------0---------------0---------
h-----3---3---3-------3---3---3-------1---1---1-------1---1---1---
g---0-------0---0---0-------0---0---0-------0---0---0-------0---0-
D-----------------------------------------------------------------
A---------------------------------3---------------3---------------
E-0---------------0-----------------------------------------------
Stává se.. Dračí drápy tnou


e-------3---------------3---------------3---------------3---------
h-----3---3---3-------3---3---3-------3---3---3-------3---3-------
g---0-------0---0---0-------0---0---0-------0---0---0-------0-----
D-----------------------------------------------------------------
A-----------------------------------------------------------------
E-3---------------3---------------2---------------2-----------3-2-
Temnice tmavá vříská Bleskne tmou

e-------3---------------3---------------0---------------0---------
h-----3---3---3-------3---3---3-------1---1---1-------1---1---1---
g---0-------0---0---0-------0---0---0-------0---0---0-------0---0-
D-----------------------------------------------------------------
A---------------------------------3---------------3---------------
E-0---------------0-----------------------------------------------
Mý vlasy.. Letí nad vodou



Da hrubý síly vzývám Csnídám bezpráG
Dtvý voči v hlavě vídám a Amije to všechno jedna velká síla
Emijestli se vážně hodíš Cnevím nejdu spát
Dna kolej kluky vodíš a Cráno se chceš brát
Emijestli se ke mně hodíš Csnad jdu k tobě spát
Ds láskou se vůní brodíme Cpostelový království
Dza koně nechce se mi Cdát jsem na tom
Dstejně mám tě Emirád
Cjablkem Djablkem nejsi Amikousnu hloubš a zlíbám tě celou
Cmersi jó mersi tak opustit zoufalců Dráj chci zas v tobě Emispát

Emi, C, Ami, C, D

GŘíkáš že svět je krásnej G/Fissvět je zlej
G/Eaž naše hvězda zhasne Chaudy haudy hej
Gštěstím se lůza brodí G/Fisnaříkám
G/Ehledá pravdu rodí Cneví nesvlíká
se lásko

Da hrubý síly vzývám Csnídám bezpráG
Dtvý voči v hlavě vídám a Amije to všechno jedna velká síla
Emijestli se vážně hodíš Cnevím nejdu spát
Dna kolej kluky vodíš a Cráno se chceš brát
Emijestli se ke mně hodíš Csnad jdu k tobě spát
Ds láskou se vůní brodíme Cpostelový království
Dza koně nechce se mi Cdát jsem na tom
Dstejně mám tě Emirád
Cjablkem Djablkem nejsi Amikousnu hloubš a zlíbám tě celou
Cmersi jó mersi tak opustit zoufalců Dráj chci zas v tobě Emispát

Emi, C, Ami, C


EmiSami se k břehům kloníme Csami jak bezvládnej proud
Amisami se proti vlnám stavíme Csami se chcem zbavit těch pout
Emisami se k břehům kloníme Csami jak bezvládnej proud
Amisami se proti vlnám stavíme C, D
Cjsem na tom Dstejně mám tě Emirád
Cjsem na tom Dstejně mám tě Emirád
Cjablkem Djablkem nejsi Amikousnu hloubš a zlíbám tě celou
Cmersi jó mersi tak opustit zoufalců Dráj chci zas v tobě Emispát

 
»
Tvoje obľúbené položky
Tvoje obľúbené položky
»
Najnovšie videá
Najnovšie videá

»
Akordové schémy
Akordové schémy
»
Tvoje obľúbené piesne
Tvoje obľúbené piesne
»
Najnavštevovanejšie piesne
Najnavštevovanejšie piesne
Chci zas v tobě spát - akordy a text

Sen - akordy a text

Amerika - akordy a text

Nejlepší kterou znám - akordy a text

Panic - akordy a text

Šrouby do hlavy - akordy a text

Medvídek - akordy a text

Černí andělé - akordy a text

Chci zas v tobě spát - přesně - akordy a text

Černí andělé - akordy

Lucie - akordy a text

Srdce - akordy a text

Chci zas k tobě spát - text

Nejlepší, kterou znám - EvoLucie - akordy a text

Dotknu se ohně (správně) - akordy

Zkamenělý dítě - akordy a text

Šťastnej chlap - akordy a text

Ona ví - akordy a text

Amerika - akordy a text

Daniela - akordy a text

viac

»
Nové albumy interpreta
Nové albumy interpreta



home | interpreti | register piesní | cd & dvd shop | pripomienky/nápady | kontakt | ochrana údajov | inzercia