Blue Effect


piesne (20)

  texty (10)
  akordy (6)
  taby (9)
  preklady (0)


články (114)
Fotky (17)
diskusia
videá
diskografia
v obchode
odkazy
koncerty
sťahuj



pridaj vlastný článok

Blue Effect:
Vladimír Mišík vydá v září nové album s názvem Noční obraz - Praha - Zpěvák, hudebník a zakládající člen kapel Blue Effect a Etc... Vladim... - ceskenoviny.cz


Blue Effect:
Vladimír Mišík kvůli dlouhodobým zdravotním problémům končí s
koncertováním
- Zpěvák, hudebník a zakládající člen kapel Blue Effect a Etc... Vladimír Mišík n... - idnes.cz


Blue Effect:
Omlouvám se, už nemohu. Vladimír Mišík oznámil, že končí s
koncertováním
- Zpěvák, hudebník a zakládající člen kapel Blue Effect a Etc... Vladimír Mišík... - novinky.cz


Blue Effect:
Honza Křížek mění sestavu a chystá druhou sólovku - Honza Křížek využil nucenou koncertní pauzu k přemýšlení. Výsledkem je, že zp... - musicserver.cz


Abraxas:
Vychádza Art Rock Line 1971–1985. Šiesty diel populárnej Line edície - Vychádza Art Rock Line 1971–1985. Šiesty diel populárnej Line edície 04.02.2021 ... - zoznam.sk


Blue Effect:
TOP 10 instrumentálních písní. Pššššt! Když nezpívají Pink Floyd, Led
Zeppelin, Blue Effect, Mr Oizo a další
- Česká republika už třetí týden připomíná Půlnoční království, zpěv na veř... - IREPORT


Blue Effect:
Brno uctí rockovou legendu: Oldřichovi Veselému (†70) postaví pomník ve
skupině čestných hrobů
- Proslul jako skladatel, zpěvák a klávesista ve skupinách Synkopy 61 a Blue Effect. B... - blesk.cz


Blue Effect:
Členové Blue Effectu Radima Hladíka oživí s orchestrem a hosty kultovní
Novou Syntézu
- ČLENOVÉ BLUE EFFECTU RADIMA HLADÍKA OŽIVÍ S HOSTY KULTOVNÍ NOVOU SYNTÉZU. DORAZÍ ... - rockandpop.cz


Blue Effect:
Rodina kytaristy Hladíka pokřtí předělávku alba Nová syntéza - Praha - Křest předělávky desek Nová syntéza a Nová syntéza 2 rockové skupiny... - ceskenoviny.cz


Blue Effect:
V reedici vyšel komplet Nová syntéza kapely Blue Effect - 16 března 2020 Milan Slezák Žádné komentáře Novinky V reedici vyšel komplet N... - rockandpop.cz


 

Blue Effect

Fanúšikov: 0



A B C Č D E F G H CH I J K L Ľ M N O P Q R S Š T U V W X Y Z Ž



ako:
Blue Effect - Slunečný hrob
Blue Effect - Slunečný hrob

tlač

edituj
Pesničku videlo 16620 návštevníkov.

Kvalita tabov : bez hodnotenia
Hodnotilo ľudí: 0 ohodnoť aj ty

Slunečný hrob

Sólo:





|---9/12~---------------------------------------------------------------------------|
|----------12--14--12--14~-12-14-12------------------12-14-12-----------------------|
|------------------------------------13~-11-12-13~-------------13--11/13-11-13-12---|
|-----------------------------------------------------------------------------------|
|-----------------------------------------------------------------------------------|
|-----------------------------------------------------------------------------------|


|-----------12^14---------12^14---------12^14---------12^14---|
|---12^14----------12^14---------12^14---------12^14----------|
|-------------------------------------------------------------|
|-------------------------------------------------------------|
|-------------------------------------------------------------|
|-------------------------------------------------------------|


|---12/14--16--19/17--16--14--12------12--12--14--14/16--16/19--19--21/19---|
|---------------------------------14----------------------------------------|
|---------------------------------------------------------------------------|
|---------------------------------------------------------------------------|
|---------------------------------------------------------------------------|
|---------------------------------------------------------------------------|

 
»
Tvoje obľúbené položky
Tvoje obľúbené položky
»
Najnovšie videá
Najnovšie videá

»
Tvoje obľúbené piesne
Tvoje obľúbené piesne
»
Najnavštevovanejšie piesne
Najnavštevovanejšie piesne
»
Nové albumy interpreta
Nové albumy interpreta



home | interpreti | register piesní | cd & dvd shop | pripomienky/nápady | kontakt | ochrana údajov | inzercia