Filmová Hudba Zahraničná


piesne (868)

  texty (255)
  akordy (129)
  taby (72)
  preklady (208)


články (56)
Fotky (111)
diskusia
videá
diskografia
v obchode
odkazy
koncerty
sťahuj



pridaj vlastný článok

Filmová Hudba Zahraničná:
Zemřel Vangelis Papathanassíou, řecká legenda filmové hudby - Ve věku 79 let navždy odešel slavný řecký skladatel, klávesista a průkopník elek... - spark


Filmová Hudba Zahraničná:
Herní soundtracky s českou-polskou stopou - hudba v počítačových hrách - Hudba v počítačových hrách mnohdy není prvek, kterého by si většina hráčů vš...


Filmová Hudba Zahraničná:
Titulní skladby ze všech bondovek vyjdou na CD a exkluzivním zlatém vinylu - "The Best Of Bond...James Bond". Tak zní název kompilace všech titulních písní ikon... - musicserver.cz


Filmová Hudba Zahraničná:
Kultové piesne z nemenej kultových filmov vychádzajú na novom výbere s
bonusmi
- Česko - Kdyby tisíc klarinetů a Starci na chmelu – české muzikály, natočené v r... - bleskovky.sk


Filmová Hudba Zahraničná:
Nesmrtelné soundtracky | Amélie z Montmartru: Esence francouzské něhy i
podivnosti
- Vydáno před 22 hodinami | autor: redakce Na svém počátku vznikly za konkrétn... - ireport.cz


Filmová Hudba Cz:
Nesmrtelné soundtracky | Interstellar: Jak se hudbou dotknout kosmu? - Vydáno včera | autor: redakce Na svém počátku vznikly za konkrétním účele... - ireport.cz


Filmová Hudba Cz:
Nesmrtelné soundtracky (1.): Hudba k batmanovské trilogii od Christophera
Nolana
- Vydáno 23.03.2020 | autor: redakce Na svém počátku vznikly za konkrétním ú... - ireport.cz


Filmová Hudba Zahraničná:
Soundtracky prvých piatich filmov o Harrym Potterovi vyjdú na vinyle - zoznam.sk


Filmová Hudba Zahraničná:
Mixtape ze Strážců Galaxie vzal za srdce Američanů - musicserver.cz


Filmová Hudba Zahraničná:
Bedári zvíťazili na udeľovaní cien Spoločnosti filmových zvukárov


 

Filmová Hudba Zahraničná

Fanúšikov: 2



A B C Č D E F G H CH I J K L Ľ M N O P Q R S Š T U V W X Y Z Ž



ako:
Filmová Hudba Zahraničná - He´s Pirate - Piráti Z Karib
Filmová Hudba Zahraničná - He´s Pirate - Piráti Z Karib

tlač

edituj
Pesničku videlo 23038 návštevníkov.

Kvalita tabov : bez hodnotenia
Hodnotilo ľudí: 0 ohodnoť aj ty
  *** Autor textu: DeXx *** Autor hudby: DeXx
Introduction
E||-----------------------|-----------------------|-----------------------|------------------||
B||-----------------------|-----------------------|-----------------------|----7-------------||
G||-----------------------|-----------------------|-----------------------|----7-------------||
D||-----------------------|-----------------------|-----------------------|-------------------||
A||--5--55--55-5555---|--5--55--55-5555--|--5--55--55-5555---|- - 5-------------||
E||------------------------|-----------------------|-----------------------|------------------||

1 part

E||------------------------|------------------------|------------------------|------------------------||
B||------------------------|-------5---6----6-----|----6----8----5----5---|------------------------||
G||---------5----7---7---|---7--------------------|------------------------|----7----5---5----7---||
D||----7------------------|------------------------|------------------------|------------------------||
A||------------------------|------------------------|------------------------|------------------------||
E||------------------------|------------------------|------------------------|------------------------||

E||------------------------|------------------------|------------------------|------------------------||
B||------------------------|--------5---6----6-----|---6---8----5---5-----|------------------------||
G||--------5----7---7-----|----7-------------------|------------------------|-----7----5-----7-----||
D||----7-------------------|------------------------|------------------------|------------------------||
A||------------------------|------------------------|------------------------|------------------------||
E||------------------------|------------------------|------------------------|------------------------||

E||------------------------|------------------------|---------5-----6----6---|-----5--------5-------||
B||------------------------|--------6----8---8-----|----8--------------------|---------8--------7--||
G||--------5---7----7----|----7-------------------|------------------------|------------------------||
D||---7--------------------|------------------------|------------------------|------------------------||
A||------------------------|------------------------|------------------------|------------------------||
E||------------------------|------------------------|------------------------|------------------------||

E||------------------------|-------------5-----------|------------------------|------------------------||
B||-------5----6----6-----|------8-----------------|---------6----5----5---|------6----------5-----||
G||---7--------------------|------------------7-----|----7-------------------|------------7-----------||
D||------------------------|-------------------------|------------------------|------------------------||
A||------------------------|-------------------------|------------------------|------------------------||
E||------------------------|-------------------------|------------------------|------------------------||

Interlude

E||------------------------|-----5-------------------|------6-------------------|------------------------|
B||---3--3--5--6--8-----|----------6----3---------|---------6---3-----------|------------------------|
G||------------------------|-------------------2-----|------------------3------|-------2---3----2------|
D||------------------------|-------------------------|--------------------------|------------------------|
A||------------------------|-------------------------|--------------------------|------------------------|
E||------------------------|-------------------------|--------------------------|------------------------|

E||---5---5---5---6---5--|-------------------------|--5---5---5----6---5---|------------------------|
B||------------------------|--8---8---8---8---10--|--------------------------|---6----6----5----3---|
G||------------------------|-------------------------|--------------------------|------------------------|
D||------------------------|-------------------------|--------------------------|------------------------|
A||------------------------|-------------------------|--------------------------|------------------------|
E||------------------------|-------------------------|---------------------------|------------------------|
Solo part

E||----------------------|----------5------------|----------------------|-----------5------------|
B||--------5----6-------|-----8---------8------|-----6----5-----6----|-----8----------8------|
G||---7-----------------|-----------------------|-----------------------|------------------------|
D||----------------------|----------------------|-----------------------|------------------------|
A||----------------------|----------------------|-----------------------|------------------------|
E||----------------------|----------------------|-----------------------|------------------------|

----------------------|----------------------|----------------------||
---------8----10-----|----10----8---------|----------------------||
---10----------------|----------------9-----|----10----9----7----||
----------------------|----------------------|----------------------||
----------------------|----------------------|----------------------||
----------------------|----------------------|----------------------||



E||----------------------|----------------------|----------------5------|----------------------|
B||--------5----6-------|----5----6----8-----|-----6-----8-----------|-----8----6----------|
G||---7-----------------|----------------------|------------------------|----------------7-----|
D||----------------------|----------------------|-----------------------|----------------------|
A||----------------------|----------------------|-----------------------|----------------------|
E||----------------------|----------------------|-----------------------|----------------------|

----------------------|-----------5----6------|----------------------||
---------5-----6-----|------8----------------|----------8----6------||
---7-----------------|------------------------|-----7----------------||
----------------------|-----------------------|-----------------------||
----------------------|-----------------------|-----------------------||
----------------------|-----------------------|-----------------------||


Ending part

E||--------5--6-5--5-5--5-3---|--3--------------------------||
B||--5---------------------------|-----6---5---6--5---3------||
G||-----5------------------------|------------------------------||
D||-------------------------------|-----------------------------||
A||-------------------------------|-----------------------------||
E||-------------------------------|------------------------------||

E||---5--6--5--5--8--5--3---|---3-------------------------||
B||----------------------------|-------6---5--6--5---3-----||
G||----------------------------|------------------------------||
D||----------------------------|------------------------------||
A||----------------------------|------------------------------||
E||----------------------------|-------------------------------||









 
»
Tvoje obľúbené položky
Tvoje obľúbené položky
»
Najnovšie videá
Najnovšie videá

»
Tvoje obľúbené piesne
Tvoje obľúbené piesne
»
Najnavštevovanejšie piesne
Najnavštevovanejšie piesne
Proud Corazón - CZ - akordy a text

Vím že Nám Noc Lásku Dá (z Filmu Lví Král) - text

Hallelujah (z Filmu Shrek) - akordy a text

Everything I do I do it for you (z filmu Robin Hoo - akordy a text

He´s Pirate - Piráti Z Karibiku - taby

I'm A Believer (z filmu Shrek) - akordy a text

Phantom Of The Opera - akordy a text

Moon River - akordy a text

Beauty And The Beast-Kráska a Zviera - text

Snow White and the Seven Dwarfs - The Silly Song - preklad

Game Of Thrones - akordy

A Whole New World (z Filmu Aladin) - preklad

Oh Happy Day - akordy a text

All Star (soundtrack Shrek - Originálne) - akordy a text

007 - Goldeneye (Zlaté oko) - text

Proč kukáš (z filmu Mrazík) - noty

California (O.C. California) - akordy

Smraďoch - akordy a text

She's Like The Wind - akordy a text

Oh Happy Day (sestra V Akcii) - text

viac




home | interpreti | register piesní | cd & dvd shop | pripomienky/nápady | kontakt | ochrana údajov | inzercia