Václav Neckář


piesne (517)

  texty (255)
  akordy (214)
  taby (3)
  preklady (0)


články (168)
Fotky (35)
diskusia
videá
diskografia
v obchode
odkazy
koncerty
sťahuj



pridaj vlastný článok

Karel Gott:
Pocta Karlu Gottovi má černou listinu: Na koncert nesmí Kubišová ani
Neckář
- Redakce 23. 5. 2020 1 / 2 STRÁNEK Gott, Kubišová, Neckář© archiv Gott, Kubišo... - msn.com


Bacily:
Václav Neckář po třech měsících mezi lidmi: Bacily útočí na
koronavirus
- PředchozíDalší 27. května 2020 ? 12:30Sdílej: Tři měsíce nevystrčil nos z bar... - blesk.cz


Václav Neckář:
Václav Neckář: Po mrtvici to na velké mluvení stále není. Mohl bych hrát
němého
- denik.cz


Václav Neckář:
Pohádkový princ Neckář je v lázních a připravuje další koncert.
Podívejte se
- denik.cz


Ewa Farna:
TOP 7 domácích vánočních hitů probíhající dekády: Václav Neckář,
Ewa Farna nebo Xindl X
- ireport.cz


Václav Neckář:
Václav Neckář jako ředitel hotelu. Na silvestra mu zazpívají Nohavica či
Bílá
- aktualne.cz


Václav Neckář:
Česká televize uvede na Silvestra poctu Václavu Neckářovi - ceskenoviny.cz


Marta Kubišová:
Neckář o končiacej kariére Kubišovej: Martu chce prehovoriť - topky.sk


Marta Kubišová:
Státní vyznamenání pro Vondráčkovou: Co na to říkají Kubišová,
Neckář a bratr Jiří?
- blesk.cz


Václav Neckář:
Nepříjemnost Václava Neckáře: Svatbu slavného kamaráda zazdila
oddávající!
- blesk.cz


 

Václav Neckář

Fanúšikov: 3



A B C Č D E F G H CH I J K L Ľ M N O P Q R S Š T U V W X Y Z Ž



ako:
Václav Neckář - Tu kytaru jsem koupil kvůli tobě
Václav Neckář - Tu kytaru jsem koupil kvůli tobě

tlač

edituj
Pesničku videlo 11160 návštevníkov.

Kvalita tabov : bez hodnotenia
Hodnotilo ľudí: 0 ohodnoť aj ty
Prispievateľ:
dodavatel96

e|5-5--2-0---5-5|------0-2----2-2-5-5|
H|---------3----|3-3-3------3--------|
Jak můžeš... Copak nemáš...

e|7-7-5---7-7-5--|7-7-5---7-7-5--|
H|--------------7|--------------7|

e|5--7-7--7-5-7-5---7-5---|7-5---7-7-5--|
H|----------------------7-|------------7|
G|-----------------------7|
Tu kytaru...

e|5--7-5-7-5---7-5--7-5-5-0|-------9-9------|
H|-------------------------|12-10------12-10|
a dal...

e|2---0-2-3-5-5-7-2-5-3|
H|-3-------------------|
ta dávno...

e|-----0--2---|------0-20-|
H|3-3--------3|2---3-----3|
G|------------|--2--------|
a já... co ti...

e|5--7--7-7-5--7-5-7-5-----|7-5---7-7-5--|
H|----------------------7--|------------7|
G|------------------------7|
To ještě...

e|5--7-5-7-5--7-5-7-5-970|----------9-9------|
H|-----------------------|10-12-10------12-10|
a jenom...

e|2---0-2-3--5-5-7-2-5-3|
H|-3--------------------|
a já už...
e|------0--2--|------0-20-|
H|3---3------3|2---3-----3|
G|------------|--2--------|
žár, který...denně...

e|7--10-10--10-7--10-10--10-7--5-2|7-10-7--10-7--10-7-5-2--5-2-0|
S tou… Měj soucit...

e|2----0-2-3--5-5-7--2--5-3|----0-2--|-------0-20-|
H|---3---------------------|3-3-----3|-2---3-----3|
G|-------------------------|---------|---2--------|
Jen kvůli... tak už...

Sólo
e|5--7-7--7-5-7-5---7-5-2--|5--7-5-7-5---7-5--7-5-5-0|2---0-2-3-5-5-7-2-5-3|
H|-----------------------3-|-------------------------|-3-------------------|

e|-----0--2---|------0-20-|
H|3-3--------3|2---3-----3|
G|------------|--2--------|

e|6--8-8--8-6-8-6---8-6---|6-6-8-6--8--6-----6|
H|----------------------8-|--------------8-8--|
G|-----------------------8|
Tu kytaru...

e|6--8-6-8-6---8-6--8-6-6-1|-------------10-10------|
H|-------------------------|11-11-13-11--------13-11|
a dal...

e|3---1-3-4-6-6-8-3-6-4|
H|-4-------------------|
ta dávno...

e|-----1--3---|------1-31-|
H|4-4--------4|3---4-----4|
G|------------|--3--------|
a já... co ti...

e|8--11-11--11-8--11-11--11-8--6-3|8-11-8--11-8--11-8-6-3--6-3-1|
S tou… Měj soucit...

e|3-1-----1-3-4--6-6-8--3--6-4|----1-3--|------1-31-|
H|----4-4---------------------|4-4-----4|3---4-----4|
G|----------------------------|---------|--3--------|
Jen kvůli... Tak už nás oba...

e|------1-31-|9-9-10-10-11|
H|3---4-----4|------------|
G|--3--------|------------|
pozvi nahoru...

Kde není text, je to mezihra.

 
»
Tvoje obľúbené položky
Tvoje obľúbené položky
»
Najnovšie videá
Najnovšie videá

»
Tvoje obľúbené piesne
Tvoje obľúbené piesne
»
Najnavštevovanejšie piesne
Najnavštevovanejšie piesne
Tu kytaru jsem koupil kvůli tobě - akordy a text

Kdo vchází do tvých snů - akordy a text

Půlnoční (správně) - akordy a text

Znám jednu starou zahradu (Šíleně smutná princezna - akordy a text

Mýdlový princ - akordy a text

Znala panna pána - akordy a text

Andělé strážní - akordy

Na Rafandě - akordy a text

Tu kytaru jsem koupil kvůli tobě - taby

Massachusetts - akordy a text

Červená čepice - akordy

Perla - akordy a text

To byl zas týden - akordy

Svět (World) - akordy a text

A tak se sejdem až v září (feat.Vondráčková,Zagoro - akordy a text

Stín Katedrál - akordy a text

Já už to vím (z rozprávky Šíleně smutná princezna) - akordy a text

Jedním tahem (z pohádky Šíleně smutná princezna) - akordy a text

Kdo vchází do tvých snů - akordy

Chci tě líbat - akordy a text

viac

»
Nové albumy interpreta
Nové albumy interpreta



home | interpreti | register piesní | cd & dvd shop | pripomienky/nápady | kontakt | ochrana údajov | inzercia