Václav Neckář


piesne (515)

  texty (255)
  akordy (214)
  taby (3)
  preklady (0)


články (168)
Fotky (35)
diskusia
videá
diskografia
v obchode
odkazy
koncerty
sťahuj



pridaj vlastný článok

Karel Gott:
Pocta Karlu Gottovi má černou listinu: Na koncert nesmí Kubišová ani
Neckář
- Redakce 23. 5. 2020 1 / 2 STRÁNEK Gott, Kubišová, Neckář© archiv Gott, Kubišo... - msn.com


Bacily:
Václav Neckář po třech měsících mezi lidmi: Bacily útočí na
koronavirus
- PředchozíDalší 27. května 2020 ? 12:30Sdílej: Tři měsíce nevystrčil nos z bar... - blesk.cz


Václav Neckář:
Václav Neckář: Po mrtvici to na velké mluvení stále není. Mohl bych hrát
němého
- denik.cz


Václav Neckář:
Pohádkový princ Neckář je v lázních a připravuje další koncert.
Podívejte se
- denik.cz


Ewa Farna:
TOP 7 domácích vánočních hitů probíhající dekády: Václav Neckář,
Ewa Farna nebo Xindl X
- ireport.cz


Václav Neckář:
Václav Neckář jako ředitel hotelu. Na silvestra mu zazpívají Nohavica či
Bílá
- aktualne.cz


Václav Neckář:
Česká televize uvede na Silvestra poctu Václavu Neckářovi - ceskenoviny.cz


Marta Kubišová:
Neckář o končiacej kariére Kubišovej: Martu chce prehovoriť - topky.sk


Marta Kubišová:
Státní vyznamenání pro Vondráčkovou: Co na to říkají Kubišová,
Neckář a bratr Jiří?
- blesk.cz


Václav Neckář:
Nepříjemnost Václava Neckáře: Svatbu slavného kamaráda zazdila
oddávající!
- blesk.cz


 

Václav Neckář

Fanúšikov: 3



A B C Č D E F G H CH I J K L Ľ M N O P Q R S Š T U V W X Y Z Ž



ako:
Václav Neckář - Půlnoční
Václav Neckář - Půlnoční

tlač

edituj
Rok vzniku: 2011
Pesničku videlo 10657 návštevníkov.

Kvalita tabov : bez hodnotenia
Hodnotilo ľudí: 0 ohodnoť aj ty
Prispievateľ:
petr554
  *** Autor textu: Jaromír 99 *** Autor hudby: Jaromír 99, Dušan Neuwerth, Jan P. Muchow
Půlnoční
Neckář Václav

Tempo = 89
Acoustic gtr.

Legend
L - tied note
x - dead note
h - hammer on/pull off
b - bend
s - slide
~ - vibrato
g - ghost note
> - accentuated note
t - trill
M - palm mute
. - staccato
P - popping (bass)
S - slapping (bass)
+ - tapping
W - wide vibrato
< - fade in
w - whammy bar
= - tremolo picking
v - brush up
^ - brush down
V - pick stroke up
n - pick stroke down


E |--------2-----------2-------|
B |--------3-----------3-------|
G |--------2-----------2-------|
D |--0--------0----------------|
A |-----------------------0----|
E |----------------------------|


--------------2-----------------------2-------------|
--------------3-----------------------3-------------|
--------------2-----------------------2-------------|
--0-----------------0-------------------------------|
--------------------------------------------0-------|
----------------------------------------------------|


--------------2-----------------------2-------------|
--------------3-----------------------3-------------|
--------------2-----------------------2-------------|
--0-----------------0-------------------------------|
--------------------------------------------0-------|
----------------------------------------------------|


--------3-----------0-------|--------2-----------2-------|
--------0-----------2-------|--------3-----------3-------|
--------0-----------2-------|--------2-----------2-------|
----------------------------|--0--------0----------------|
-----------0-----------4----|-----------------------0----|
--3-------------------------|----------------------------|


--------------2-----------------------2-------------|
--------------3-----------------------3-------------|
--------------2-----------------------2-------------|
--0-----------------0-------------------------------|
--------------------------------------------0-------|
----------------------------------------------------|


--------------2-----------------------2-------------|
--------------3-----------------------3-------------|
--------------2-----------------------2-------------|
--0-----------------0-------------------------------|
--------------------------------------------0-------|
----------------------------------------------------|


--------3-----------0-------|--------2-----------2-------|
--------0-----------2-------|--------3-----------3-------|
--------0-----------2-------|--------2-----------2-------|
----------------------------|--0--------0----------------|
-----------0-----------4----|-----------------------0----|
--3-------------------------|----------------------------|


--------------2-----------------------2-------------|
--------------3-----------------------3-------------|
--------------2-----------------------2-------------|
--0-----------------0-------------------------------|
--------------------------------------------0-------|
----------------------------------------------------|


--------------2-----------------------2-------------|
--------------3-----------------------3-------------|
--------------2-----------------------2-------------|
--0-----------------0-------------------------------|
--------------------------------------------0-------|
----------------------------------------------------|


--------3-----------0-------|--------2-----------2-------|
--------0-----------2-------|--------3-----------3-------|
--------0-----------2-------|--------2-----------2-------|
----------------------------|--0--------0----------------|
--2--------4-----------4----|-----------------------0----|
----------------------------|----------------------------|


--------------2-----------------------2-------------|
--------------3-----------------------3-------------|
--------------2-----------------------2-------------|
--0-----------------0-------------------------------|
--------------------------------------------0-------|
----------------------------------------------------|


--------------2-----------------------2-------------|
--------------3-----------------------3-------------|
--------------2-----------------------2-------------|
--0-----------------0-------------------------------|
--------------------------------------------0-------|
----------------------------------------------------|


--------3-----------0-------|--------2-----------2-------|
--------0-----------2-------|--------3-----------3-------|
--------0-----------2-------|--------2-----------2-------|
----------------------------|--0--------0----------------|
-----------0-----------4----|-----------------------0----|
--3-------------------------|----------------------------|


--------------2-----------------------2-------------|
--------------3-----------------------3-------------|
--------------2-----------------------2-------------|
--0-----------------0-------------------------------|
--------------------------------------------0-------|
----------------------------------------------------|


--------------2-----------------------2-------------|
--------------3-----------------------3-------------|
--------------2-----------------------2-------------|
--0-----------------0-------------------------------|
--------------------------------------------0-------|
----------------------------------------------------|


--------3-----------0-------|
--------0-----------2-------|
--------0-----------2-------|
----------------------------|
--2--------4-----------4----|
----------------------------|


--2-----------5-----2-----------2-----2-----2-------|
--3-----------------3-----------3-----3-----3-------|
--2-----------------2-----------2-----2-----2-------|
--0-----------------------------0-----------0-------|
----------------------------------------------------|
----------------------------------------------------|


--2-----5-----------2--------------2----------------|
--3-----3-----------------------3-----3-------------|
--2-----2-----------------------2-----2-------------|
--0-----0-----------------------0-----0-------------|
-----------------------------------------------2----|
----------------------------------------------------|


--2-----------2-----2-----2-----------2-------------|
--3-----3-----------3-----------3-----3-----3-------|
--4-----------------4-----------------4-------------|
--4-----------------4-----------------4-------------|
--2-----------------2-----------------2-------------|
----------------------------------------------------|


--3-------------------------------------------------|
--0-----------------2L----------2-----2-----2-------|
--0-----------------2-----------------------2-------|
--------------------2-----------------------2-------|
--------------------0-------------------------------|
--3-----------------------------------------0-------|


--------2-----------2-------|
--------3-----------3-------|
--------2-----------2-------|
--0--------0----------------|
-----------------------0----|
----------------------------|


--------------2-----------------------2-------------|
--------------3-----------------------3-------------|
--------------2-----------------------2-------------|
--0-----------------0-------------------------------|
--------------------------------------------0-------|
----------------------------------------------------|


--------------2-----------------------2-------------|
--------------3-----------------------3-------------|
--------------2-----------------------2-------------|
--0-----------------0-------------------------------|
--------------------------------------------0-------|
----------------------------------------------------|


--------3-----------0-------|--------2-----------2-------|
--------0-----------2-------|--------3-----------3-------|
--------0-----------2-------|--------2-----------2-------|
----------------------------|--0--------0----------------|
-----------0-----------4----|-----------------------0----|
--3-------------------------|----------------------------|


--------------2-----------------------2-------------|
--------------3-----------------------3-------------|
--------------2-----------------------2-------------|
--0-----------------0-------------------------------|
--------------------------------------------0-------|
----------------------------------------------------|


--------------2-----------------------2-------------|
--------------3-----------------------3-------------|
--------------2-----------------------2-------------|
--0-----------------0-------------------------------|
--------------------------------------------0-------|
----------------------------------------------------|


--------3-----------0-------|
--------0-----------2-------|
--------0-----------2-------|
----------------------------|
--2--------4-----------4----|
----------------------------|


--2-----------5-----2-----------2-----2-----2-------|
--3-----------------3-----------3-----3-----3-------|
--2-----------------2-----------2-----2-----2-------|
--0-----------------------------0-----------0-------|
----------------------------------------------------|
----------------------------------------------------|


--2-----5-----------2--------------2----------------|
--3-----3-----------------------3-----3-------------|
--2-----2-----------------------2-----2-------------|
--0-----0-----------------------0-----0-------------|
-----------------------------------------------2----|
----------------------------------------------------|


--2-----------2-----2-----2-----------2-------------|
--3-----3-----------3-----------3-----3-----3-------|
--4-----------------4-----------------4-------------|
--4-----------------4-----------------4-------------|
--2-----------------2-----------------2-------------|
----------------------------------------------------|


--3-------------------------|
--0-----0-----0-----0-------|
--0--0-----0-----0-----0----|
--0-------------------------|
--2-------------------------|
--3-------------------------|


--3-------------------------------------------------|
--0-----------0-----------0-----------0-------------|
--0-----0-----------0-----------0-----------0-------|
--0-------------------------------------------------|
--2-------------------------------------------------|
--3-------------------------------------------------|


--2-----------2-----2-----------2-----2-----2-------|
--3-----------3-----3-----------3-----3-----3-------|
--2-----------2-----2-----------2-----2-----2-------|
--0-----------------------------0-------------------|
----------------------------------------------------|
----------------------------------------------------|


--0-----------0-----0-----------0-----0-----0-------|
--2-----------2-----2-----------2-----2-----2-------|
--2-----------2-----2-----------2-----2-----2-------|
--2-----------------------------2-------------------|
--0-----------------------------0-------------------|
----------------------------------------------------|


--2-----------2-----2-----------2-----2-----2-------|
--3-----------3-----3-----------3-----3-----3-------|
--4-----------4-----4-----------4-----4-----4-------|
--4-----------------------------4-------------------|
--2-----------------------------2-------------------|
----------------------------------------------------|


--3-----------3-----3-----------3-----3-----3-------|
--0-----------0-----0-----------0-----0-----0-------|
--0-----------0-----0-----------0-----0-----0-------|
--0-----------------------------0-------------------|
--2-----------------------------2-------------------|
--3-----------------------------3-------------------|


--2-----------2-----2-----------2-----2-----2-------|
--3-----------3-----3-----------3-----3-----3-------|
--2-----------2-----2-----------2-----2-----2-------|
--0-----------------------------0-------------------|
----------------------------------------------------|
----------------------------------------------------|


--0-----------0-----0-----------0-----0-----0-------|--3L---|--3-------------|
--2-----------2-----2-----------2-----2-----2-------|--1L---|--1-------------|
--2-----------2-----2-----------2-----2-----2-------|-------|----------------|
--2-----------------------------2-------------------|--0L---|--0-------------|
--0-----------------------------0-------------------|--3L---|--3-------------|
----------------------------------------------------|-------|----------------|


--------------5-----2L-------2--2-----2-----2-------|
--3-----------------2-----------3-----3-----3-------|
--2-----------------------------2-----2-----2-------|
--0-----------------------------0-----0-----0-------|
----------------------------------------------------|
----------------------------------------------------|


--2-----5-----------2-----------------2-------------|
--3-----------------------------------3-------------|
--2-----------------------------------2-------------|
--0-----------------------------------0-------------|
-----------------------------------------------2----|
----------------------------------------------------|


--2-----------2-----2-----2-----------2-------------|
--3-----3-----------3-----------3-----3-----3-------|
--4-----------------4-----------------4-------------|
--4-----------------4-----------------4-------------|
--2-----------------2-----------------2-------------|
----------------------------------------------------|


----------------------------------------------------|
--0-----------------2-----------------2-----2-------|
--0-----------------2-----------------2-----2-------|
----------------------------------------------------|
--------------------0-------------------------------|
--3-------------------------------------------------|


--------2-----------2-------|
--------3-----------3-------|
--------2-----------2-------|
--0--------0----------------|
-----------------------0----|
----------------------------|


--------------2-----------------------2-------------|
--------------3-----------------------3-------------|
--------------2-----------------------2-------------|
--0-----------------0-------------------------------|
--------------------------------------------0-------|
----------------------------------------------------|


--------------2-----------------------2-------------|
--------------3-----------------------3-------------|
--------------2-----------------------2-------------|
--0-----------------0-------------------------------|
--------------------------------------------0-------|
----------------------------------------------------|


--------3-----------0-------|--------2-----------2-------|
--------0-----------2-------|--------3-----------3-------|
--------0-----------2-------|--------2-----------2-------|
----------------------------|--0--------0----------------|
-----------0-----------4----|-----------------------0----|
--3-------------------------|----------------------------|


--------------2-----------------------2-------------|
--------------3-----------------------3-------------|
--------------2-----------------------2-------------|
--0-----------------0-------------------------------|
--------------------------------------------0-------|
----------------------------------------------------|


--------------2-----------------------2-------------|
--------------3-----------------------3-------------|
--------------2-----------------------2-------------|
--0-----------------0-------------------------------|
--------------------------------------------0-------|
----------------------------------------------------|


--------3-----------0-------|
--------0-----------2-------|
--------0-----------2-------|
----------------------------|
--2--------4-----------4----|
----------------------------|


--2-----------5--------------2----------------------|
--3-----------------2--------2--3-----3-----3-------|
--2-----------------------------2-----2-----2-------|
--0-----------------------------0-----0-----0-------|
----------------------------------------------------|
----------------------------------------------------|


--2-----5-----------2-------------------------------|
--3-----3-----------------------3-----3-------------|
--2-----2-----------------------2-----2-------------|
--0-----0-----------------------------0-------------|
-----------------------------------------------2----|
----------------------------------------------------|


----------------------------------------------------|
--7-----------7-----------7-----------7-------------|
--------7-----------7-----------7-----------7-------|
--9L----9L----9L----9L----9L-9L-9L-9L-9L----9-------|
--9L----9-----------9L----9L-9L-9-----9L----9-------|
--7L----7-----------7L----7L-7L-7-----7L----7-------|


----------------------------------------------------|
--7-----------7-----------7-----------7-------------|
--------7-----------7-----------7-----------7-------|
--9L----9L----9L----9L----9L-9L-9L-9L-9L----9-------|
--9L----9-----------9L----9L-9L-9-----9L----9-------|
--7L----7-----------7L----7L-7L-7-----7L----7-------|


----------------------------------------------------|
--0-----------0-----------0-----------0-------------|
--------0-----------0-----------0-----------0-------|
--0L----0L----0L----0L----0L----0L----0L----0-------|
----------------------------------------------------|
--3L----3L----3L----3L----3L----3L----3L----3-------|


--2-----------2-----2-----------2-----2-----2-------|
--3-----------3-----3-----------3-----3-----3-------|
--2-----------2-----2-----------2-----2-----2-------|
--0-----------------------------0-------------------|
----------------------------------------------------|
----------------------------------------------------|


--0-----------0-----0-----------0-----0-----0-------|
--2-----------2-----2-----------2-----2-----2-------|
--2-----------2-----2-----------2-----2-----2-------|
--2-----------------------------2-------------------|
--0-----------------------------0-------------------|
----------------------------------------------------|


--2-----------2-----2-----------2-----2-----2-------|
--3-----------3-----3-----------3-----3-----3-------|
--4-----------4-----4-----------4-----4-----4-------|
--4-----------------------------4-------------------|
--2-----------------------------2-------------------|
----------------------------------------------------|


--3-----------3-----3-----------3-----3-----3-------|
--0-----------0-----0-----------0-----0-----0-------|
--0-----------0-----0-----------0-----0-----0-------|
--0-----------0-----0-----------0-----0-----0-------|
--2-----------------------------2-------------------|
--3-----------------------------3-------------------|


--2-----------2-----2-----------2-----2-----2-------|
--3-----------3-----3-----------3-----3-----3-------|
--2-----------2-----2-----------2-----2-----2-------|
--0-----------------------------0-------------------|
----------------------------------------------------|
----------------------------------------------------|


--0-----------0-----0-----------0-----0-----0-------|
--2-----------2-----2-----------2-----2-----2-------|
--2-----------2-----2-----------2-----2-----2-------|
--2-----------------------------2-------------------|
--0-----------------------------0-------------------|
----------------------------------------------------|


--3-----------3-----3-----------3-----3-----3-------|
--3-----------3-----3-----------3-----3-----3-------|
--0-----------0-----0-----------0-----0-----0-------|
--2-----------------------------2-------------------|
--3-----------------------------3-------------------|
----------------------------------------------------|


--3-----------3-----3-----------3-----3-----3-------|
--0-----------0-----0-----------0-----0-----0-------|
--0-----------0-----0-----------0-----0-----0-------|
--0-----------0-----0-----------0-----0-----0-------|
--2-----------------------------2-------------------|
--3-----------------------------3-------------------|


--2-----------2-----2-----------2-----2-----2-------|
--3-----------3-----3-----------3-----3-----3-------|
--2-----------2-----2-----------2-----2-----2-------|
--0-----------------------------0-------------------|
----------------------------------------------------|
----------------------------------------------------|


--0-----------0-----0-----------0-----0-----0-------|
--2-----------2-----2-----------2-----2-----2-------|
--2-----------2-----2-----------2-----2-----2-------|
--2-----------------------------2-------------------|
--0-----------------------------0-------------------|
----------------------------------------------------|


--2-----------2-----2-----------2-----2-----2-------|
--3-----------3-----3-----------3-----3-----3-------|
--4-----------4-----4-----------4-----4-----4-------|
--4-----------------------------4-------------------|
--2-----------------------------2-------------------|
----------------------------------------------------|


--3-----------3-----3-----------3-----3-----3-------|
--0-----------0-----0-----------0-----0-----0-------|
--0-----------0-----0-----------0-----0-----0-------|
--0-----------0-----0-----------0-----0-----0-------|
--2-----------------------------2-------------------|
--3-----------------------------3-------------------|


--2-----------2-----2-----------2-----2-----2-------|
--3-----------3-----3-----------3-----3-----3-------|
--2-----------2-----2-----------2-----2-----2-------|
--0-----------------------------0-------------------|
----------------------------------------------------|
----------------------------------------------------|


--0-----------0-----0-----------0-----0-----0-------|
--2-----------2-----2-----------2-----2-----2-------|
--2-----------2-----2-----------2-----2-----2-------|
--2-----------------------------2-------------------|
--0-----------------------------0-------------------|
----------------------------------------------------|


--0-----------------------------------------0-------|--0L---|
--1-----------------------------------------1-------|--1L---|
--0-----------------------------------------0-------|--0L---|
----------------------------------------------------|-------|
--3-------------------------------------------------|--3L---|
----------------------------------------------------|-------|


--0L----------------------0L----------0-------------|
--1L----------------------1L----------1-------------|
--0L----------------------0L----------0-------------|
----------------------------------------------------|
--3L----------------------3L----------3-------------|
----------------------------------------------------|


--2-----------5--------------2----------------------|
--3-----------------2--------2--3-----3-----3-------|
--2-----------------------------2-----2-----2-------|
--0-----------------------------0-----0-----0-------|
----------------------------------------------------|
----------------------------------------------------|


--2-----5-----------2-------------------------------|
--3-----3-----------------------3-----3-------------|
--2-----2-----------------------2-----2-------------|
--0-----0-----------------------------0-------------|
-----------------------------------------------2----|
----------------------------------------------------|


--2-----------2-----------2-----------2-------------|
--0-----3-----------3-----------3-----------3-------|
----------------------------------------------------|
--4-----------------4-----------------4-------------|
--2-----------------2-----------------2-------------|
----------------------------------------------------|


----------------------------------------------------|
--0-----------------2-----------------2-----2-------|
--0-----------------2-----------------------2-------|
----------------------------------------------------|
--------------------0-------------------------------|
--3L----------3-------------------------------------|


----------------------------------------------------|
----------------------------------------------------|
----------------------------------------------------|
--0-----------------0L----------0-------------------|
----------------------------------------------------|
----------------------------------------------------|


----------------------------|
----------------------------|
----------------------------|
--0--------0----------------|
----------------------------|
----------------------------|


----------------------------------------------------|
----------------------------------------------------|
----------------------------------------------------|
----------------------------------------------------|
--2-----------------2-------------------------------|
----------------------------------------------------|


----------------------------|----||
----------------------------|----||
----------------------------|----||
----------------------------|----||
-----------0----------------|----||
--3-------------------------|----||


https://www.dropbox.com/s/mba4h7qy4il6ffc/
Neckar-Pulnocni.pdf

 
»
Tvoje obľúbené položky
Tvoje obľúbené položky
»
Najnovšie videá
Najnovšie videá

»
Tvoje obľúbené piesne
Tvoje obľúbené piesne
»
Najnavštevovanejšie piesne
Najnavštevovanejšie piesne
Tu kytaru jsem koupil kvůli tobě - akordy a text

Kdo vchází do tvých snů - akordy a text

Půlnoční (správně) - akordy a text

Znám jednu starou zahradu (Šíleně smutná princezna - akordy a text

Mýdlový princ - akordy a text

Znala panna pána - akordy a text

Andělé strážní - akordy

Na Rafandě - akordy a text

Tu kytaru jsem koupil kvůli tobě - taby

Massachusetts - akordy a text

Červená čepice - akordy

Perla - akordy a text

To byl zas týden - akordy

Svět (World) - akordy a text

A tak se sejdem až v září (feat.Vondráčková,Zagoro - akordy a text

Stín Katedrál - akordy a text

Já už to vím (z rozprávky Šíleně smutná princezna) - akordy a text

Jedním tahem (z pohádky Šíleně smutná princezna) - akordy a text

Kdo vchází do tvých snů - akordy

Chci tě líbat - akordy a text

viac

»
Nové albumy interpreta
Nové albumy interpreta



home | interpreti | register piesní | cd & dvd shop | pripomienky/nápady | kontakt | ochrana údajov | inzercia