Johann Sebastian Bach


piesne (8)

  texty (1)
  akordy (0)
  taby (6)
  preklady (1)


články (9)
Fotky (7)
diskusia
videá
diskografia
v obchode
odkazy
koncerty
sťahuj



pridaj vlastný článok

Johann Sebastian Bach:
Druhý májový Koncert bez publika ponúkne spojenie organa a flauty - včera o 10:00 | redakcia V digitálnej koncertnej sieni Slovenskej filharmónie dnes ... - zoznam.sk


Johann Sebastian Bach:
Do kostelů se na měsíc vrátí duchovní hudba. Začíná Svatováclavský
hudební festival
- rozhlas.cz


Johann Sebastian Bach:
Klasika na Supraphone: Vilém Veverka, Musica Bohemica a Leoš Janáček - zoznam.sk


Johann Sebastian Bach:
Banskou Štiavnicou bude znieť hudba Johanna Sebastiana Bacha - webnoviny.sk


Johann Sebastian Bach:
Experti vytvorili nový vzhľad skladateľa Johanna Sebastiana Bacha


Johann Sebastian Bach:
Bachove melódie rozozvučia evanjelické kostoly v Bratislave


Johann Sebastian Bach:
Na vrchole japonskej hory Fudži hral Bacha


Johann Sebastian Bach:
Sebastian Bach vstoupí do studia v metalovém kabátku - musicserver.cz


Johann Sebastian Bach:
SEBASTIAN "BAZ" BACH


 

Johann Sebastian Bach

Fanúšikov: 0



A B C Č D E F G H CH I J K L Ľ M N O P Q R S Š T U V W X Y Z Ž



ako:
Johann Sebastian Bach - Air On The G String
Johann Sebastian Bach - Air On The G String

tlač

edituj
Pesničku videlo 8558 návštevníkov.

Kvalita tabov : bez hodnotenia
Hodnotilo ľudí: 0 ohodnoť aj ty
: -0----------------------------------------------
:o-1-----------1-----------1-----------1----------
: -0-----------0-----------0-----------0----------
: ------------------------------------------------
:o-3-----------3-----------2-----------2----------
: ------------------------------------------------

-0----------------------------------------------
-1-----------1-----------1-----------1----------
-2-----------2-----------0-----------0----------
------------------------------------------------
-0----------------------------------------------
------------------------------------------------
^ ^ ^ ^
-0-----------5-----1----------------------------
-1-----------------------3-----1-----0---1------
------------------------------------------------
-3-----------3-----------4-----------3----------
------------------------------------------------
------------------------------------------------

------------------------------------------------
-0-----------0----------------------------------
-0-----------------2-----0----------------------
------------------------------------------------
------------------------------------------------
-------------3-----------1-----------1----------
^ ^ ^ ^
-3----------------------------------------------
-0-----------0-----------0-----------0----------
-0-----------0-----------0-----------0----------
-------------2-----------0-----------0----------
------------------------------------------------
-0----------------------------------------------


-3-----0-----------------------------3-----1----
-------------------------3-----2----------------
-------------3-----2----------------------------
------------------------------------------------
-4-----------3-----------0-----------0----------
------------------------------------------------

-1----------------------------------------------
-3-----------3-----------3-----------3----------
-2-----------2-----------2-----------2----------
-0-----------0----------------------------------
-------------------------3-----------3----------
------------------------------------------------
^ ^ ^ ^
-1-----------------------------------1-----0----
-------3-----------------1-----0----------------
-------------2-----0----------------------------
------------------------------------------------
-2-----------2----------------------------------
-------------------------3-----------3----------

-0-----------------------------------2-----3----
-1-----------1-----------1-----------1----------
-0-----------0-----------0-----------0----------
------------------------------------------------
-3-----------3-----------2-----------2----------
------------------------------------------------
^ ^ ^ ^
-------------0-----------0----------------------
-1-----1--3--------------------3-----3-----1----
-2----------------------------------------------
-------------------------------------0----------
-0----------------------------------------------
-------------3-----------2----------------------

------------------------------------------------
-0--------------0--1-----1-----------0----------
-------2-----2-----------------------------2----
-------------------------0-----------0----------
-------------3----------------------------------
-3----------------------------------------------

------------------------------------------------ :
------------------------------------------------o:
-0---------------------------------------------- :
-------------------------0-----3-----2---------- :
-------0-----2-----3-----------------------0----o:
-3---------------------------------------------- :
^ ^ ^ ^

------------------------------------------------
-0-----------------------0--1--0-----0----------
-------------0--------------------2--------0----
-------------------------3-----------3----------
------------------------------------------------
-3----------------------------------------------
^ ^ ^ ^

-3----------------------------------------------
------------------------------------------------
-------------------------------------3----------
-2-----------2-----------0-----------0----------
------------------------------------------------
------------------------------------------------

-------------0-----------------3-----1-----0----
-------------------3-----2----------------------
-2----------------------------------------------
-------------------------2----------------------
-4-----------3-----------------------0----------
------------------------------------------------
^ ^ ^ ^
-0--1--------------------1--0-------------------
-------------------------------3--1--0----------
-------------------------------------------2----
-0-----------0----------------------------------
-------------------------3-----------3----------
------------------------------------------------

------------------------------------------------
-------------0-----------0-----1-----3----------
-1-----2----------------------------------------
------------------------------------------------
-2-----------2-----------0-----------0----------
------------------------------------------------

-------0-----1-----------1-----------0----------
-3----------------------------------------------
------------------------------------------------
------------------------------------------------
-------------0-----------2----------------------
-4-----------------------------------3----------
^ ^ ^ ^
------------------------------------------------
-3-----1-----0-----------0-----1--3--1-----0----
-------------------2----------------------------
-------------3-----------0----------------------
-0----------------------------------------------
------------------------------------------------

------------------------------------------------
------------------------------------------------
-2----------------------------------------------
------------------------------------------------
-0-----------0----------------------------------
-------------------------3-----------3----------
^ ^ ^ ^
-------------------------------0----------------
-1-----------------------1-----------3-----1----
-2-----------------------2----------------------
-0-----------------------0-----------2----------
------------------------------------------------
-2-----------1-----------0----------------------

-5-----------------------------------3-----1----
------------------------------------------------
------------------------------------------------
-0-----------0----------------------------------
-------------------------3-----------3----------
------------------------------------------------

-0-----------3----------------------------------
-------3-----------------------------------0--1-
-------------------0-----2-----------2----------
-------------------------------------0----------
-2-----------2-----------3----------------------
------------------------------------------------
^ ^ ^ ^
------------------------------------------------
-0-----------0----------------------------------
-------------------2-----0----------------------
------------------------------------------------
------------------------------------------------
-3-----------3-----------1-----------1----------

-------------------------------------0----------
-1-----------------------------------------3----
-0-----------------------2----------------------
------------------------------------------------
------------------------------------------------
-0-----------0-----------1-----------1----------

-------------------------------------1-----0----
-3-----------------------0----------------------
-2-----------------------0----------------------
-0----------------------------------------------
------------------------------------------------
-2-----------1-----------3-----------3----------
^ ^ ^ ^

-------0-----------------------------3-----1----
-3-----------------------1----------------------
-4-----------------------2----------------------
------------------------------------------------
-------------------------0-----------0----------
-4-----------3----------------------------------
^ ^ ^ ^
-1----------------------------------------------
-3----------------------------------------------
-2----------------------------------------------
-0-----------0----------------------------------
-------------------------3-----------3----------
------------------------------------------------

-------------------------------------------1----
-------------------------------0-----3----------
-0-----------------------0----------------------
------------------------------------------------
-2-----------2-----------------------2----------
-------------------------3----------------------

-1-----------0-----------0-----------0-----1--3-
-------3----------------------------------------
-0-----------------------0----------------------
------------------------------------------------
-3-----------3-----------1-----------2----------
------------------------------------------------
^ ^ ^ ^
-------------------------------0-----3-----6----
-1-----------------------1----------------------
-2-----------------------0-----------0----------
------------------------------------------------
-0-----------0----------------------------------
-------------------------3----------------------

-6-----------5----------------------------------
-------------------------------------1----------
------------------------------------------------
-3-----------3-----------2-----------2----------
------------------------------------------------
------------------------------------------------

-------------1----------------------------------
-0-----3----------------------------------------
-------------------------------------2----------
-0-----------0----------------------------------
-------------------------3-----------3----------
------------------------------------------------
^ ^ ^ ^

-------------------0--1--1--0-------------------
-------------3--------------------------------3-
-0-----------------------0-----------2----------
------------------------------------------------
-2-----------------------3----------------------
-------------3-----------------------1----------
^ ^ ^ ^
------------------------------------------------
-1--0--------------0-----0--1--0-----0-----1----
-------2-----2--------------------2-------------
------------------------------------------------
------------------------------------------------
-3-----------1-----------3-----------3----------

------------------------------------------------
-1----------------------------------------------
-0----------------------------------------------
-2----------------------------------------------
-3----------------------------------------------
------------------------------------------------

 
»
Tvoje obľúbené položky
Tvoje obľúbené položky
»
Najnovšie videá
Najnovšie videá

»
Tvoje obľúbené piesne
Tvoje obľúbené piesne
»
Najnavštevovanejšie piesne
Najnavštevovanejšie piesne
»
Nové albumy interpreta
Nové albumy interpreta



home | interpreti | register piesní | cd & dvd shop | pripomienky/nápady | kontakt | ochrana údajov | inzercia